Acordes para guitarra

Indice Laxn Busto

guitartabs







Lax'n Busto
Aquesta nit 
Transcripción de Mikel Terrés Villalonga
lbus0011


Celleta al 1r trast

e|--------------0---------------------------0---------------|
B|--------0-------------0-------------0-------------0-------|  intr.
G|-----2-----2-------2-----2-------2-----2-------2-----2----|
D|----------------------------------------------------------|   x2
A|--0-------------------------------------------------------|
E|------------------------------2---------------------------|


e|--------------0-----------------------------------------------|
B|--------0-------------0-------------------(mateix)------------| estrofa
G|-----2-----2-------2-----2-----(mateix)--------------(mateix)-|
D|-----------------------------------------0--------------------|    x3
A|--0-----------------------------------------------------------|
E|------------------------------2---------------------0---------|


No sé com dir-te que em crema
Ja massa l’espera
Sobren paraules, mirades,
Cerveses i festa.
Veig llum al teus ulls
Que son foscos color de la nit
I so ells els que em diuen
El que els teus llavis
No em saben dir.

No vull prometre
Ni vull comprometre
Els teus somnis





Acordes para guitarra
x

Todo acerca de Laxn Busto