Acordes para guitarra

Indice Laxn Busto

guitartabs







Lax'n Busto
Emiliano Zapata 
Transcripción de Mikel Terrés Villalonga
lbus0031


A  E7  A

A
Quan s'encén una llum, una flama, 
                                   E7    
a dins la teva ànima, dins el teu cor, 
D              A       E7                   A
fes perquè no s'apagui,   potser valgui la pena. 


Quan alguns tenen tanta riquesa 
i a d'altres en canvi, ens falta la feina, 
un home sense terra,   no serà un home lliure, no mai. 
D             A                             E7 
Si no cantem tots que aquesta és la nostra lluita 
            A
tot seguirà igual. 


                   A             E7                    A
I no em diguis que no, per favor,   digues-m'ho a la cara, 
D                    A                 E7                 A       
doncs la terra és la mare el moment és ara i el lloc és aquí. 


A
Ai! Emiliano, Emiliano Zapata, 
                                     E7  
al teu costat vaig lluitar fa molts anys. 

Torna aquí amb mi però vine amb americana 
                                       A  
i fer-me un pan de Ayala per la llibertat. (bis)


Tu lluitaves amb terratenientes 
mentre els manava Victoriano Huertas. 
Portava ulleres fosques i,   matava els seus germans. 


Tu vas dir que la terra ha de ser 
per aquell que la treballa amb les seves mans 
i el poble de Morelos,   vas convèncer tu a crits d'olé! 
no volies cap càrrec mentre Pancho Villa es va significar. 


Presidente no vas voler ser,   ni un ric hacendado. 
És per això que jo et canto 
si volem ser lliures haurem de lluitar. 


Ai! Emiliano, Emiliano Zapata,...   (bis)


               D             A  
I si és que algú té molta fortuna 
          E7               A   
que no la guardi tota per ell, 
            D                  A    
doncs si la lluna per tots és una, 
          E7                A
també la terra serà per la gent. 


D                  A   E7
Sé que ho veurem, 
D                   E7                   A   
La nostra ànima és una, algun dia ho veurem... 


Ai! Emiliano, Emiliano Zapata,...  (bis)


A  E7  A



TABLATURA:

e|--------------------------------------------------------------------------|
B|--------------------------------------------------------------------------|
G|--------------------------------------------------------------------------|
D|---2-2-2-0-----2-/7-7-6-7\-2----------2-2-2-0---2-/7-7-6-0----------------|
A|-----------4-4--------------------------------4---------------------------|
E|--------------------------------------------------------------------------|


e|--------------------------------------------------------------------------|
B|--------------------------------------------------------------------------|
G|--------------------------------------------------------------------------|
D|---0-0-0---------6-6-4-6-2---2-6-6-4-6-2---2-9-9-6-7----------------------|
A|---------4-2-2-4----------------------------------------------------------|
E|--------------------------------------------------------------------------|






Acordes para guitarra
x

Todo acerca de Laxn Busto