Acordes para guitarra

Indice Laureano Brisuela

guitartabs







Laureano Brizuela
Transcripción de daniel ramirez peña
lbri0082


tanto tiempo piediendo este tab, 
hechenle ganasa, este es el maestroa
 compositor de esta gran cancion, 
un saludo y por favor cualquier duda u aclaracion 
esta el email a la disposicion un saludo a  mi mi 
queridisima muñequita, erika TE AMO¡¡¡

Miguel Mateos


Transcripcion por Marcelo E. Manfredi.
Buenos Aires, Arg.

Intro:

|----------------------------------------------------------
|----------------------------------------------------------
|---/-9-9-9-p8------6---6--6-/-8----------/-9-9-9-9-p8-\-6-
|---/-9-9-9-(9)-----7---7--7-/-9----------/-9-9-9-9--9-\-7-
|----------------------------------------------------------
|----------------------------------------------------------



|----------------------------------------------------------
|----------------------------------------------------------
|---4------2--(2)------/-9-9-9-9-p8------6---6--6-/-8------
|---4--x---2--(2)------/-9-9-9-9-(9)-----7---7--7-/-9------
|----------------------------------------------------------
|---------------------------------------------------------

|---------------------------------------------------------
|---------------------------------------------------------
|---/-9-9-9-9-p8-\-6------2--2-/4-~-----------------------
|---/-9-9-9-9--9-\-7------2--2-/4-~-----------------------
|---------------------------------------------------------
|---------------------------------------------------------


Solo:

|-----------------------------------------------7----(7)--
|--------------------------------------7/(9)\7-(7)---(7-)-
|----8/(9)\8---------------4-h6-p4------------------------
|--x----------9-~-----4-h6--------------------------------
|-------------------7-------------------------------------
|---------------------------------------------------------

|-----12--14--16--14-16--17-16-17-19/(21)-(21)-19~--17-16-
|-/12-----------------------------------------------------
|---------------------------------------------------------
|---------------------------------------------------------
|---------------------------------------------------------
|---------------------------------------------------------

|-19-16-17-19-17\16--17-14-16-17-16\14--16-12-14-16-14\12-
|---------------------------------------------------------
|---------------------------------------------------------
|---------------------------------------------------------
|---------------------------------------------------------
|---------------------------------------------------------

|-14-11-12-14-12\11---12--11-h12-----(.............)------
|---------------------------------------------------------
|---------------------------------------------------------
|---------------------------------------------------------
|---------------------------------------------------------
|---------------------------------------------------------

7-p5 = pull off
5-h7 = hammer on
10/12 = Slide up
12\10 = Slide down
10/(12)\10 = bend & release
(12)\10 = pre-bend & release
(10) = sostiene la nota
  ~  = vibrato
QUE TAL QUEDO PERRON VERDAD, ESTA PERFECTO, HECHENLE LOS 
KILOS EL AMESTRO NO SE EQUIVOCO...EL EMAIL ESTA ARRIBA 
MAESTRO DE BUENOS AIRES MUCHAS GRACIAS, HAY TALENTO Y 
SI HE¡¡¡





Acordes para guitarra
x

Todo acerca de Laureano Brisuela