Acordes para guitarra

Indice Lapsus

guitartabs







Lapsus
Transcripción de Omar Miranda
laps0012


TRANSCRITO POR: Omar Miranda
11/09/2005

ACORDES:

    Cm   F    D#  G#  A#  G  F(I)  Fm
e|--8----8----6---4---6---3---1----8---|
B|--8----10---8---4---6---3---1----9---|
G|--8----10---8---5---7---4---2----10--|
D|--10---10---8---6---8---5---3----10--|
A|--10---8----6---6---8---5---3----8---|
E|--8-------------4---6---3---1--------|

INTRO:

           \
Cm F D# A#  |> *2
           /

    Cm            F    D#                A#
e|--------------|----|-----------------|-------|
B|--9-8-8-------|-11-|-9-8------8------|-------|TECLADO HECHO PARA LA GUITARRA
G|------------8-|----|-----10-8---10-8-|-10-10-|
D|---------10---|----|-----------------|-------|
A|--------------|----|-----------------|-------|
E|--------------|----|-----------------|-------|


   Cm            F    D#                A#     Cm      A#  Cm      A#    Cm      A#  Cm
e|-------------|----|------------------|-----|-------|---|-------|-----|-------|---|-----|
B|-------------|-11-|-9-8------8-------|-----|-------|---|-------|-----|-------|---|-----|
G|-8---------8-|----|-----10-8---10----|-----|-------|---|-------|-----|-------|---|-----|
D|---10---10---|----|---------------10-|-8-8-|-10-10-|-8-|-10-10-|-8-8-|-10-10-|-8-|-10--|
A|-------------|----|------------------|-----|-------|---|-------|-----|-------|---|-----|
E|-------------|----|------------------|-----|-------|---|-------|-----|-------|---|-----|

VERSO:

Cm                           G#         A#
Yo no te pido que me des más alas uohh  no
                         Cm
Solo quiero que me dejes ser
Cm                                G#         A#
Si te he fallado en las cosas del alma uohh no
                    Cm
Solamente pido yo saber y saber


Cm                              G#        A#
Es tu inocencia, no me ayuda en nada uohh no
                      Cm
Sangrar y amar es liberar
Cm                              G#        A#
Porque detener la niebla cuando baja uohh no
                       G#
Mejor es bailar y amanecer
                     G           G F(I)
No fingir colgar del sol y subir


D#                   Fm
Amar hasta brillar vivir en un volcán
G#                   D#
Dejando un beso explotar
D#
Porque vender mi paz
     Fm
No hallar mi libertad
G#                         D#
Teñirme el pelo y hasta el bar

INTERMEDIO:

    Cm            F    D#                A#
e|--------------|----|-----------------|-------|
B|--9-8-8-------|-11-|-9-8------8------|-------|TECLADO HECHO PARA LA GUITARRA
G|------------8-|----|-----10-8---10-8-|-10-10-|
D|---------10---|----|-----------------|-------|
A|--------------|----|-----------------|-------|
E|--------------|----|-----------------|-------|


   Cm            F    D#                A#     Cm      A#  Cm      A#    Cm      A#  Cm
e|-------------|----|------------------|-----|-------|---|-------|-----|-------|---|-----|
B|-------------|-11-|-9-8------8-------|-----|-------|---|-------|-----|-------|---|-----|
G|-8---------8-|----|-----10-8---10----|-----|-------|---|-------|-----|-------|---|-----|
D|---10---10---|----|---------------10-|-8-8-|-10-10-|-8-|-10-10-|-8-8-|-10-10-|-8-|-10--|
A|-------------|----|------------------|-----|-------|---|-------|-----|-------|---|-----|
E|-------------|----|------------------|-----|-------|---|-------|-----|-------|---|-----|


VERSO:

Cm                           G#         A#
Yo no te pido que me des más alas uohh  no
                         Cm
Solo quiero que me dejes ser
Cm                                G#         A#
Si te he fallado en las cosas del alma uohh no
                    G#
Solamente pido yo saber
                       G           G F(I)
Antes que pierda el brillo tu rubí


D#                   Fm
Amar hasta brillar vivir en un volcán
G#                   D#
Dejando un beso explotar
D#
Porque vender mi paz
     Fm
No hallar mi libertad
G#                         D#
Teñirme el pelo y hasta el bar

    Cm               D#             Fm               G#             \
e|----------------|--------------|----------------|--------------|   |
B|--9-8------8----|--9-8------8--|--9-8------8----|--9-8------8--|   |
G|------10-9---8--|------10-8----|------10-9---8--|------10-8----|   |> *2
D|----------------|--------------|----------------|--------------|   |
A|----------------|--------------|----------------|--------------|   |
E|----------------|--------------|----------------|--------------|   |
							    /
TECLADO HECHO PARA LA GUITARRA

      \
Fm Cm  |>* 4
      /
                                \
Fm                    Cm         |
Ama suwa, ama llulla, ama qhilla |>*4
                                 |
                                /
      \
Fm Cm  |>* 2
      /

Cm          Fm
No voy a limpiar la ventana para mirar
   Cm
Lo poco que sueñan los niños
Fm
No quiero más juegos de noche
        Cm
Aguja o hechizos para atrapar

Cm          Fm
No voy a limpiar la ventana para mirar
   Cm
Lo fuertes que son tus motivos
Fm
No voy a mandarme en cana
                        G#               G
Por ver si me arrastran tus curvas al bailar

SALIDA:

    Cm            F    D#                A#
e|--------------|----|-----------------|-------|
B|--9-8-8-------|-11-|-9-8------8------|-------|TECLADO HECHO PARA LA GUITARRA
G|------------8-|----|-----10-8---10-8-|-10-10-|
D|---------10---|----|-----------------|-------|
A|--------------|----|-----------------|-------|
E|--------------|----|-----------------|-------|


   Cm            F    D#                A#     Cm      A#  Cm      A#    Cm      A#  Cm
e|-------------|----|------------------|-----|-------|---|-------|-----|-------|---|-----|
B|-------------|-11-|-9-8------8-------|-----|-------|---|-------|-----|-------|---|-----|
G|-8---------8-|----|-----10-8---10----|-----|-------|---|-------|-----|-------|---|-----|
D|---10---10---|----|---------------10-|-8-8-|-10-10-|-8-|-10-10-|-8-8-|-10-10-|-8-|-10--|
A|-------------|----|------------------|-----|-------|---|-------|-----|-------|---|-----|
E|-------------|----|------------------|-----|-------|---|-------|-----|-------|---|-----|
TECLADO HECHO PARA LA GUITARRA


ESPERO QUE SEA DE TU AGRADO

CUALQUIER DUDA, CONCEJO O COMENTARIO
POR FAVOR ESCRIBIR





Acordes para guitarra
x

Todo acerca de Lapsus