Acordes para guitarra

Indice Lagartos

guitartabs







Lagartos
La Quinceañera 
Transcripción de packo
laga0031


HABLADO:  (B / G#m / C#m / F#m) 2 veces

*hoy despiertas a la vida
hoy dejas de ser una niña
eres como una mariposa que sale de su capullo
como una rosa que abre sus petalos al aire
a partir de hoy con la ayuda de tu papi y de tu mami
te empiezas a forjar como mujer
hoy, ya no eres una niña
a partir de hoy....*

!!!!YA ERES CANCHA OFICIAL!!!!


E -------------------------------4-2---2-------------
A --2-2-2-2-2----------2-2-2-2-2----------1-4-----4-2
D -------------1-4----------------------------2-1----

B                G# B
hoy es una fiesta
                      G# F#
con un pastel de fresa
B                       G# B
quince velas en la punta
                           G# F#
y los gorrones en la puerta


E -2-------------
A --1-4-----4-2
D -----2-1----

B                      G# B
el del vals se equivoco
                       G# F#
la quinceañera se cayo
B                      G# B
tu papa se escabuyo
                        B
con la comadre se perdio


E -2-------------
A --1-4-----4-2
D -----2-1----

*CAMBIA A HEAVY METAL*

 G#m / F#m / G#m
 (en esta parte el cambio de regreso al G#m, es rapido)

E -2-------------
A --1-4-----4-2
D -----2-1----

B                G# B
esta es tu noche
                        G# F#
con tu novio en el coche
B                         G# B
las ventanas se empañaron
                        G# F#
y los dos se besuqueron

B                    G# B
y saliendo del salon
                     G# F#
a tu casa se lanzaron
B                        G# B
con tres años de trabajo
                       B
tu mama se ha endeudado

* VUELVE A CAMBIAR EL RITMO A HEAVY NOPAL*
(IGUAL QUE LA PRIMERA VEZ)

E -2-------------
A --1-4-----4-2
D -----2-1----


* DESPUES CAMBIA EL RITMO OTRA VES, PERO AHORA A CUMBIA*

B                      F#
quinceañera mi quinceañera
      E                 F#
solo quiero que seas feliz
    B               F#
conserva mi quinceañera
       E        F#    B
tu inocencia hasta morir

A ------4-2
D ---2-1---

*REGRESA AL RITMO DE PUNK*

E -------------------------------4-2---2-------------
A --2-2-2-2-2----------2-2-2-2-2----------1-4-----4-2
D -------------1-4----------------------------2-1----

*ACABANDO LA GUITARRA, CAMBIA A HEAVY METAL*
(IGUAL QUE LAS OTRAS DOS VECES)


E -2-------------
A --1-4-----4-2
D -----2-1----


* Y POR ULTIMO, REGRESA NUEVAMENTE AL RITMO DE CUMBIA*

B                      F#
quinceañera mi quinceañera
      E                 F#
solo quiero que seas feliz
    B               F#
conserva mi quinceañera
       E        F#    B
tu inocencia hasta morir


hagan una rueda
va la quinceañera
hagance una rueda
hay mi hija niña se queda  !!!hhhaaaaayyyyyy!!!!


* CAMBIA EL RITMO A VALLS *
(TAMBIEN BAJAN UN TONO)

A / E / D / E / A / A7 / D /E / A


!!!!!!QUINCEAÑERA!!!!


E -------------------------------4-2---2-------------
A --2-2-2-2-2----------2-2-2-2-2----------1-4-----4-2
D -------------1-4----------------------------2-1----


 DEDICADA A TODAS LAS QUINCEAÑERAS

JAJA





Acordes para guitarra
x

Todo acerca de Lagartos