Acordes para guitarra

Indice Ladrones Sueltos

guitartabs







Los Ladrones Sueltos
Transcripción de Ramón Edgardo Vásquez Florentino
lsue0121


Hola, mi nombre es Ramón Vásquez y les mando un saludo muy especial 
desde Honduras a toda la gente que contribuye con esta maravillosa 
página como lo es el A.T.A.M.E. y quiero pedirles que lo sigan apoyando!!!

Este es el primer TAB que mando y espero les guste ya que esta rola
(muy buena en lo personal) no estaba incluída en el repertorio.

Sin más, aquí los dejo con este excelente grupo argentino!!!


Simbología ejemplificada:
-12h14-    hammer on
-14p12-    pull off
-12s13-    slide
-(12)--    nota fantasma
--12~--    vibrato


Intro:

e--------------------------------------------------------------------------------|
B--------------------------------------------------------------------------------|
G-------------------4s11-11~--11h13-13-11s13-13~--11s13-11~--11h13-13-11s13-13~--|
D--2h4-9~--9s11-9~---------------------------------------------------------------|
A--------------------------------------------------------------------------------|
E--------------------------------------------------------------------------------|

e-------------------------------------------------------|
B-------------------------------------------------------|
G--4s11-11~------------------------------------8-8h11~--|
D------------11s13-11~--11s13-13-11s9-9~--9-11----------|
A-------------------------------------------------------|
E-------------------------------------------------------|

e-------------------------------------------------------|
B----------------------------------7s9-9h12~------------|
G--4s13-13~--13-11-9-8-6~-------------------------------|
D--------------------------4h6-4~-----------------------|
A-------------------------------------------------------|
E-------------------------------------------------------|


        Riff 1               Riff 2          Riff 3              Riff 4

e--------------------|------------------|--------------|-----------------------|
B--------------------|------------------|--12~-5h7-5~--|--12~-5h7-5~-5h7-5-5~--|
G--------------------|--4h6-4-2h4-4-4~--|--------------|-----------------------|
D--6-6-6h7p6-6p4-6~--|------------------|--------------|-----------------------|
A--------------------|------------------|--------------|-----------------------|
E--------------------|------------------|--------------|-----------------------|


Verso 1:

   E             Riff 1          C#m         A5  Riff 2  
  Nena perdoname        si me domina la avaricia,
 E           B5         A5
  si te mezquino mis caricias,
            C#m         B5
  si no te convido mis besos,
             A5           E              F#             B5  A5
  si soy la causa del bostezo que va durmiendo a tu sonrisa.


Verso 2:

   E             Riff 1            C#m         A5   Riff 3
  Nena perdoname        si soy un muro inpenetrable,
 E           B5           A5
  si soy un juego inexplicable,
             C#m        B5
  si no te ilumino los días,
            A5                  E            F#           B5   A5
  si mi torpeza es quien te enfría hasta congelarte los huesos.


Coro:

   E                           B5   A5
  Nena cuida mi piel, cuida mi alma
   C#m                         A5   B5
  Nena cuida mi piel, cuida mi alma     
   E                           B5   A5
  Nena cuida mi piel, cuida mi alma
   C#m                         A5   
  Nena cuida mi piel, cuida mi alma...     


Verso 3:

   E            Riff 1           C#m        A5    Riff 2
  Nena regalame        todo lo que llevas adentro,
 E            B5           A5
  dame el petróleo de tu cuerpo,
           C#m          B5 
  dame la furia de tus labios,
             A5            E              F#            B5   A5
  dame el veneno que en verano va a derretirme con tus besos.


Verso 4:

   E            Riff 1            C#m          A5    Riff 4
  Nena regalame        la magia que lleva tu esencia,
 E         B5          A5             C#m        B5
  la fórmula de tu sustancia y tu secreto más inmenso,
           A5            E               F#          B5    A5
  dame tus aguas que me bañan en los placeres más intensos.


Coro:

   E                           B5   A5
  Nena cuida mi piel, cuida mi alma
   C#m                         A5   B5
  Nena cuida mi piel, cuida mi alma     
   E                           B5   A5
  Nena cuida mi piel, cuida mi alma
   C#m                         A5   
  Nena cuida mi piel, cuida mi alma...     


Solo:

e----------------------------------------------------------------------------------|
B----------------------------------------------------------------------------------|
G--4s9~--9-11-13-9~--9-11-13-16~--14-13-14-13-11-13-14s16-14-13-11-9~--9-11-13-9~--|
D----------------------------------------------------------------------------------|
A----------------------------------------------------------------------------------|
E----------------------------------------------------------------------------------|

e--12s14~-12s14~-12~---------------|
B---------------------12-10-9-7~~--|
G----------------------------------|
D----------------------------------|
A----------------------------------|
E----------------------------------|


Coro:

   E                           B5   A5
  Nena cuida mi piel, cuida mi alma
   C#m                         A5   B5
  Nena cuida mi piel, cuida mi alma     
   E                           B5   A5
  Nena cuida mi piel, cuida mi alma
   C#m                         A5   
  Nena cuida mi piel, cuida mi alma...


Si alguien puede sacar el acompañamiento de la Intro y del Solo pues, hágalo please!!!

Dudas, comentarios mandarlos a mi correo, OK

Esta canción va dedicada a mi nena Jennifer M. Arias, con mucho cariño.





Acordes para guitarra
x

Todo acerca de Ladrones Sueltos