Acordes para guitarra

Indice Ladrones Sueltos

guitartabs

===================================================
| Los Ladrones Sueltos                            |
| TU DOLOR                                        |
| ---???---                                       |
| ---???--- ()                                    |
============================================TAB====

Intro:

   G                 G                          Bm                    C         D
e------|-------------------------|----------------------------|--------------|-----|
B------|-------------------------|---------------12~----------|------------7-|-8~--|
G------|--12-11-12------12-11-12-|------12-11-12-----12-11----|-9~---9-7-9---|-----|
D------|-----------12~-----------|-12~---------------------12-|--------------|-----|
A------|-------------------------|----------------------------|--------------|-----|
E------|-------------------------|----------------------------|--------------|-----|


Verso 1:
     
   G                                          Bm
  Si estas abatida y en tus horizontes ves señales de un fuerte dolor...
            C             Edim7 Am           D
  que te envuelve sin piedad    en un frío amargo...


Verso 2:

   G                                                     Bm    
  Si estas confundida y no encontraste la salida que te saque de esta situación... 
            C           Edim7 Am            D
  no te entregues a soltar    un profundo llanto. 


Intro
     

Verso 3:

  G                                                 Bm
  Es un desafío saber que estás al filo que no hay más tiempo que perder,
         C            Edim7   Am        D
  transitemos de una vez   este camino largo.


Verso 4:

   G                                                   Bm
  Sé que es difícil verlo, cuesta reconocerlo pero, está claro que podés...
         C    Edim7          Am D
  Yo confío, yo creo en tu fuerza.


Coro:

   Bb                              F     
  Nena, yo quisiera destruir tu dolor,
          D                  Gm
  yo quisiera entregarte en las manos,
        C                             F
  el calor que tanto tiempo has buscado.
   Bb                              F 
  Nena yo quisiera descubrir el sabor
           D                      Gm
  que le pueda poner gusta a tus días, 
            C                       F
  que te devuelva el color de la vida.


Intro


Verso 5:

      G                               Bm
  Si te sirve de algo estoy cultivando con ilusión...
           C            Edim7     Am           D
  flores que gracias a vos hoy decoran mis jardines.


Verso 6:

     G                                           Bm
  Y sé que estoy en deuda, tuya era la semilla, tuyo era el sol...
         C         Edim7 Am            D
  y así pude terminar   con mis días grices.


Coro:

   Bb                              F     
  Nena, yo quisiera destruir tu dolor,
          D                  Gm
  yo quisiera entregarte en las manos,
        C                             F
  el calor que tanto tiempo has buscado.
   Bb                              F 
  Nena yo quisiera descubrir el sabor
           D                      Gm
  que le pueda poner gusto a tus días, 
            C                       F
  que te devuelva el color de la vida.


Solo:

   G                                                       C      D
e-----|-------------------------------------------------|-----|--------|
B-----|-------------------------------------------------|-----|--------|
G-----|--12-11-12------12-11-12-9~--12-11-12~--12-11-12-|-9~--|-9s11~--|
D-----|-----------12~-----------------------------------|-----|--------|
A-----|-------------------------------------------------|-----|--------|
E-----|-------------------------------------------------|-----|--------|
 

Coro:

   Bb                              F     
  Nena, yo quisiera destruir tu dolor,
          D                  Gm
  yo quisiera entregarte en las manos,
        C                             F
  el calor que tanto tiempo has buscado.
   Bb                              F 
  Nena yo quisiera descubrir el sabor
           D                      Gm
  que le pueda poner gusto a tus días, 
            C                       F  G  Bm  C
  que te devuelva el color de la vida.



Edim7

e--0--|
B--2--|
G--0--|
D--2--|
A--1--|
E--0--|


Dudas, comentarios... mandarlos a mi E-mail OK.

Dedicada a Jennifer M. Arias hasta Catacamas, Olancho, Honduras, C.A.

===================================================
Colaboracion de Ramón Edgardo Vásquez Florentino



Acordes para guitarra
x

Todo acerca de Ladrones Sueltos