Acordes para guitarra

Indice Kult

guitartabs





On my back bass tab

Verse1
G|----------------------------------|
D|----------------------------------|
A|-10-9-7-----5H7---10-9-7-7-7---7-7|
E|--------5H7-----0------------0----|

Verse2
G|----------------------------|
D|----------------------------|
A|-7-7-7-7-5-5-5-5------------|
E|-----------------7-7-7-7-5-0|  LET OPEN 'E' RING

Chorus
G|----------------------|
D|-----0-2-3-----0-2H3P2|
A|-0-3-------0-3--------|
E|----------------------|

During solo
G|--------------------------------------|
D|--------------------------------------|
A|-10-9-7---10-9-7---10-9-7-------------|
Acordes para guitarra
x

Todo acerca de Kult