Acordes para guitarra

Indice Kreator

guitartabs





KREATOR
'Renewal'

from the album 'Renewal'


transcribed by

find more metal tablatures at
  http://venus.spaceports.com/~metaltab/

intro
=====
(the beginning of intro is missing, sorry)

     . . . ...        ........   . . . ...
|----------------------------------------------------|
|----------------------------------------------------|
|----------------------------------------------------|
|----------------------------------------------------|
|--8-----------2-5-10----------8-----------2-5-10-8--|
|--6-0-0-0-000-0-3--8-00000000-6-0-0-0-000-0-3--8-6--|



on next bar I didn't count the amount of strikes on open 6th string,
listen yourself, and it's very easy to play without thinking, just
play along with the record. and also palm mute all zero's.


verse
=====

 "imperfection, new temptation, innocence will breed new life"
 "disillusion,   desperation,  free my mind  and let it rise"
 "mass enslavement, brutal torment, tomorrow will they see it clear"
 "resurrection, disconnection, substance that can make us fly without...
|-------------------------------------------------------------|
|-------------------------------------------------------------|
|-------------------------------------------------------------|
|-------------------------------------------------------------|
|-5---------------------------------------------2--5--8-10----|
|-3--0-0-0-0-0-0-0-0-0-0-0-0-0-0-0-0-0-0-0-0-0--0--3--6--8----|


pre-chorus
==========

 ...fear"                                       "without fear"
|-----------------------------------------------------------------|
|-----------------------------------------------------------------|
|--2--8---7--5---2--4--5--------2--8---7--5---2--4--5--4--3--2----|
|-----------------------------------------------------------------|
|--0--6---5--3---0--2--3----3-2-0--6---5--3---0--2--3--2--1--0----|
|-----------------------------------------------------------------|


chorus
======

    "never to be seen again,   ever to release the pain,  renewal of your mind"
|--------------------------------------------------------------------|
|--------------------------------------------------------------------|
|--------------------------------------------------------------------|
|--2------------------------7---------------------------4------------|
|--2------------------------7---------------------------4------------|
|--0------------------------5---------------------------2------------|


then:

intro again
second verse
chorus again
intro again


then the very beginning of the intro (which I didn't tab) and then
Acordes para guitarra
x

Todo acerca de Kreator