Acordes para guitarra

Indice Kreator

guitartabs





Kreator
Celestial Deliverance
Cause of Conflict
Tabbed By Kevin Cruz

standard tunning

E:-----------------------------------|------|
B:-----------------------------------|------|
G:-----------------------------------|------|
D:----------------------------5--5-7-|--3X--|
A:-0-2-3-2--0-2-3-2--0-2-3-2--3--3-5-|------|
E:-----------------------------------|------|
   . . . .  . . . .  . . . .  

E-------------------------------------|------------|--------------|
B-------------------------------------|------------|--------------|
G-------------------------------------|------------|--------------|
D-------------------------------------|----5--5-7--|----5--5-7----|
A:-0-2-3-2--0-2-3-2--5-3-2-3--5-3-2-3-|-2--3--3-5--|-3--3--3-5----|
E:------------------------------------|-0----------|-1------------|
   . . . .  . . . .  . . . .  . . . .

Acordes para guitarra
x

Todo acerca de Kreator