Acordes para guitarra

Indice Kid Rock

guitartabs





-----------------------------------------------------------------------------
                          PICTURE (solo) - Kid Rock
-----------------------------------------------------------------------------

Tabbed by: Ricky Privette


E|----------------------------------------------------------------------|
B|----------------------------------------------------------------------|
G|----------------0--0--11h12--11---9---7-------11h12--11---9---7-------|
D|-----------0h2---------------------------9-----------------------9----|
A|------0-2-------------------------------------------------------------|
E|--3-3-----------------------------------------------------------------|


E|---------------------------------------------14h15--14---12---10------|
B|--12h13--12---10-------------15------------------------------------12-|
G|-------------------12---14^------14^r---12----------------------------|
D|----------------------------------------------------------------------|
A|----------------------------------------------------------------------|
E|----------------------------------------------------------------------|


E|--15--12--------------------------------------------------------------|
B|----------------------------------------------------------------------|
G|----------14^---12h14p12----------------------------------------------|
D|--------------------------12h14p12-----------------------x----x-------|
A|------------------------------------14--12------12-------14--14^--r---|
E|--------------------------------------------15------15----------------|


|x- Mute Note
|h- Hammer-on
|p- Pull-off
|r- Release
Acordes para guitarra
x

Todo acerca de Kid Rock