Acordes para guitarra

Indice Kid Rock

guitartabs





Kid Rock
Devil Without a Cause
Bass Tab submitted by bonehead

-----------------------------------
-----------------------------------
--------0---0-0-2---2-2-4----------
2---2-0----------------------------

-----------------------------------
----------------------------------- Repeat a couple of times
-------------0--------------------- then
0h2--0h2-0h2-----------------------

---------
---------After playing the 1st Riff a couple of times then 
-2--0----going to this it goes to the 2nd Riff
---------

-----------------------------------
-----------------------------------After playing the second
----0-2--0-------------------------Riff a couple of times it
0h2--------2--0h2--0h2-------------goes to the third Riff

----------------------------You play this 2x and then you go
----------------------------back to the 1st Riff and play it
------------------0h2-0-----for the rest of the verse and 
0-2-2-2-0-2-0-222-----------for the chorus drop the 2nd pt.
                            verse 2 is all the same except 
                            for the 3rd Riff instead of that
                            play this

-----------------I'm not so sure about this pt. but I think
-----------------it's right.  Then play the 1st Riff for 
--11-------------the rest of the song.
Acordes para guitarra
x

Todo acerca de Kid Rock