Acordes para guitarra

Indice Kenny Wayne Shepherd

guitartabs





                             KENNY WAYNE SHEPHERD
                                    WAS


HEY I SENT THIS TAB BEFORE BUT HERE IS JUST ANOTHER WAY TO PLAT IT


STANDARD TUNING
EADGBe


------------------------|
------------------------|
------------------------|
-----------2------------|
--2-----2--0-----2------|
--0--3--0-----3--0------|

------------------------------|
------------------------------|
------------------------------|
------------------------------|
-2-2-----2-----2-2-----2------|
-0-0--3--0-----0-0--3--0------|

have fun
Acordes para guitarra
x

Todo acerca de Kenny Wayne Shepherd