Acordes para guitarra

Indice Kenny Wayne Shepherd

guitartabs





                           KENNY WAYNE SHEPHERD
                            CHASE THE RAINBOW


STANDARD TUNING
EADGBe


h=hammer
v=downstroke
^=upstroke
b=bend
p=pull off

                      v^v^                     v^v^
----------------------5555---------------------5555-----|
-----------------xxx--5555----------------xxx--5555-----|
-----------------xxx--5555-------------5b-xxx--5555-----|
---------5---5h7-xxx---------------5------xxx-----------|
---0-5h7---7-----xxx---------0-5h7---7----xxx-----------|
--------------------------------------------------------|


                      v^v^                     v^v^
----------------------5555---------------------5555-----|
-----------------xxx--5555----------------xxx--5555-----|
-----------------xxx--5555-------------5b-xxx--5555-----|
---------5---5h7-xxx---------------5------xxx-----------|
---0-5h7---7-----xxx---------0-5h7---7----xxx-----------|
--------------------------------------------------------|


this is where a little solo starts
this is how it starts
--12b--12p10-------------------|
-------------13-10--13b--------|
-------------------------------|
-------------------------------|
-------------------------------|
-------------------------------|

thats pretty much it
there are many other solos but they are past me
Acordes para guitarra
x

Todo acerca de Kenny Wayne Shepherd