Acordes para guitarra

Indice Kelly Clarkson

guitartabs





VERY EASY SONG, hardly no bass until chours's, so here it is

There is no bass for the first 47 seconds

so
Bass Starts, Chours 00:48, then at 00:59 "thanks to you..."
G|-----------------|  |-----------------------------------|
D|-----------------|  |-----------------------------------|
A|2222-333---------|x3|------------------55555555-5~~-----|
E|--------3-3333333|  |-55555555-00000000----------------3|

no bass for the verse 1:10

Chours 1:36
G|-----------------|  |-----------------------------------|
D|-----------------|  |-----------------------------------|
A|2222-333---------|x3|------------------55555555-5~~-----|
E|--------3-3333333|  |-55555555-00000000----------------3|

Bridge 1:54
G|-----------------------------------------------------------------|
D|-----------------------------------------------------------------|
A|33333333--------33333333--------33333333-------33333333333333333~|
E|--------00000000--------00000000--------no-bass------------------|

Chours 2:24
G|-----------------|  |------------------|
D|-----------------|  |------------------|
A|2222-333---------|x3|------------------|
E|--------3-3333333|  |-55555555-00000000|

Back to Chours 2:38
G|-----------------|  |------------------|  |----------|
D|-----------------|  |------------------|  |----------|
A|2222-333---------|x3|------------------|x2|-55555555-|
E|--------3-3333333|  |-55555555-00000000|  |----------|

no bass till end

Acordes para guitarra
x

Todo acerca de Kelly Clarkson