Acordes para guitarra

Indice Kamikaze

guitartabs

     Chiksilog tab by Kamikaze




Chiksilog Tab


-------------------------------------------------------------------------------
                             Chiksilog - Kamikaze
-------------------------------------------------------------------------------
Tabbed by: Roy Mahinay

notes:
sori po pag nakadouble bar lahat saka ung 'o' po di pow '0' open string po yan
nalilito po kasi ako eh
hehehe
gud luck with my tab sana mabasa nyo pow thanx
suggestions/comments email me =)

LEGEND
h = hammer
p = pull-off
/ = slide
x = muted note
o = open string
* = palm mute

INTRO
e||----------------
b||----------------
g||9999999999999999
d||xxxxxxxxxxxxxxxx
a||7777777777777777
E||----------------


|------------------||
|------------------||
|9999999999999-----||
|xxxxxxxxxxxxx-----||
|7777777777777-----||
|
|-------------------------------||
|-------------------------------||
|13131313131313131313131313-----||
| x x x x x x x x x x x x x-----||
|11111111111111111111111111-----||
|-------------------------------||

PREVERSE 1

||-------------------------------------|----------------------------|----------
------------------||
||-------------------------------------|----------------------------|----------
------------------||
||999-----------------999--------------|999-----------------999-----|----------
------------------||
||999-777-111111-999--999-777-99999999-|999-777-111111-999--999-777-|99xxxxx-99
xxxxx-99x99x99x99-||
||777-777-111111-999--777-777-99999999-|777-777-111111-999--777-777-|99xxxxx-99
xxxxx-99x99x99x99-||
||----555- 9 9 9-777------555-77777777-|----555- 9 9 9-777------555-|77xxxxx-77
xxxxx-77x77x77x77-||
||
||ooo-ooo-ooo-ooo--ooo-ooo-oooooooo-|ooo-ooo-ooo-ooo--ooo-ooo-|ooxxxxx-ooxxxxx-
ooxooxooxoo-||
||ooo-754-ooo-754--ooo-754-55555555-|ooo-754-ooo-754--ooo-754-|55xxxxx-55xxxxx-
55x55x55x55-||
||----------------------------------|-------------------------|----------------
------------||
||----------------------------------|-------------------------|----------------
------------||
||----------------------------------|-------------------------|----------------
------------||
||----------------------------------|-------------------------|----------------
------------||

VERSE 1

||--------------------------------||
||--------------------------------||
||999//---------------------------||
||999//-----------111111------7-7-||
||777//-----------111111------7-7-||
||---------------- 9 9 9------5-5-|| 2x


||--------------------------------|--------------------------------||
||--------------------------------|--------------------------------||
||999-----------------------------|999-----------------------------||
||999-------------111111------7-7-|999-------------111111-------7-7||
||777-------------111111------7-7-|777-------------111111-------7-7||
||---------------- 9 9 9------5-5-|---------------- 9 9 9-------5-5||
||
||**********************PM*************************
||--------------------------------|--------------------------------||
||--------------------------------|--------------------------------||
||99886644221122449988664422112244|99886644221122449988664422112244||
||--------------------------------|--------------------------------||
||--------------------------------|--------------------------------||
||--------------------------------|--------------------------------||


||-------------------------------------|-------------------------------------||
||-------------------------------------|-------------------------------------||
||999-----------------999--------------|999-----------------999--------------||
||999-777-111111-999--999-777-99999999-|999-777-111111-999--999-777-99999999-||
||777-777-111111-999--777-777-99999999-|777-777-111111-999--777-777-99999999-||
||----555- 9 9 9-777------555-77777777-|----555- 9 9 9-777------555-77777777-||


||ooo-ooo-ooo-ooo--ooo-ooo-oooooooo-|ooo-ooo-ooo-ooo--ooo-ooo-oooooooo-||
||ooo-754-ooo-754--ooo-754-55555555-|ooo-754-ooo-754--ooo-754-55555555-||
||----------------------------------|----------------------------------||
||----------------------------------|----------------------------------||
||----------------------------------|----------------------------------||
||----------------------------------|----------------------------------||

VERSE 2

||--------------------------------||
||--------------------------------||
||999//---------------------------||
||999//-----------111111------7-7-||
||777//-----------111111------7-7-||
||---------------- 9 9 9------5-5-|| 2x


||--------------------------------|--------------------------------||
||--------------------------------|--------------------------------||
||999-----------------------------|999-----------------------------||
||999-------------111111------7-7-|999-------------111111----7--9--||
||777-------------111111------7-7-|777-------------111111----7--9--||
||---------------- 9 9 9------5-5-|---------------- 9 9 9----5--7--||
||
||**********************PM*************************
||--------------------------------|--------------------------------||
||--------------------------------|--------------------------------||
||99886644221122449988664422112244|998866442211224499886644--------||
||--------------------------------|--------------------------7--9--||
||--------------------------------|--------------------------7--9--||
||--------------------------------|--------------------------5--7--||

PRECHORUS

|| **. **. **. **. * * .  * * * .
||-------------------------------------------||
||-------------------------------------------||
||----------------------------------99999999-||
||-777-777-999-999-111111-11111111--99999999-||
||-777-777-999-999-111111-11111111--77777777-||
||-555-555-777-777- 9 9 9- 9 9 9 9-----------|| 2x


||----------------------------------------||
||----------------------------------------||
||----------------------------------------||
||-777-x77-111111-999--777-x77-111111-999-||
||-777-x77-111111-999--777-x77-111111-999-||
||-555-x55- 9 9 9-777--555-x55- 9 9 9-777-||


||----------------------------------------||
||----------------------------------------||
||----------------------------------------||
||-777-x77-111111-999--777-x77-111111--9--||
||-777-x77-111111-999--777-x77-111111--9--||
||-555-x55- 9 9 9-777--555-x55- 9 9 9--7--||
||
||---------131313-111111--999-x99-131313--11--||
||--------- x x x- x x x--xxx-xxx- x x x-- x--||
||---------111111- 9 9 9--777-x77-111111-- 9--||
||--------------------------------------------||
||--------------------------------------------||
||--------------------------------------------||

CHORUS

||-------------------------------------||
||-------------------------------------||
||999-----------------999--------------||
||999-777-111111-999--999-777-99999999-||
||777-777-111111-999--777-777-99999999-||
||----555- 9 9 9-777------555-77777777-||
||
||ooo-ooo-ooo-ooo--ooo-ooo-oooooooo-||
||ooo-754-ooo-754--ooo-754-55555555-||
||----------------------------------||
||----------------------------------||
||----------------------------------||
||----------------------------------|| 2x


||-------------------------------------||
||-------------------------------------||
||999-----------------999--------------||
||999-777-111111-999--999-777-99999999-||
||777-777-111111-999--777-777-99999999-||
||----555- 9 9 9-777------555-77777777-|| 2x
                              (B)
SOLO

||--------------------------||
||--------------------------||
||--14 count --------//--888||
||------sa snare----///--888||
||----------tapos--/////-666||
||-----------------/////----||


||-----------------------------------------------------------------------------
-------||
||-----------------------------------------------------------------------------
-------||
||9999999999999999-------------------------------------------------------------
-------||
||9999999999999999-11111111111111111111111111111111-9999999999999999-7777777777
777777-||
||7777777777777777-11111111111111111111111111111111-9999999999999999-7777777777
777777-||
||----------------- 9 9 9 9 9 9 9 9 9 9 9 9 9 9 9 9-7777777777777777-5555555555
555555-||
||
||--------------------------------------------------------------------||
||7777777755554444-7777777755554444-7777777755554444-555555554444oooo-||
||--------------------------------------------------------------------||
||--------------------------------------------------------------------||
||--------------------------------------------------------------------||
||--------------------------------------------------------------------|| 2x

                                               ,
||-----------------------------------------------------------------------------
------------||
||-----------------------------------------------------------------------------
------------||
||----------------------R-------------------------------------------R----------
------------||
||-777-x77-111111-9999--E--77-77-7-111111-9999-777-x77-111111-9999--E--77-77-7-
111111-9999-||
||-777-x77-111111-9999--S- 77-77-7-111111-9999-777-x77-111111-9999--S- 77-77-7-
111111-9999-||
||-555-x55- 9 9 9-7777--T--55-55-5- 9 9 9-7777-555-x55- 9 9 9-7777--T--55-55-5-
 9 9 9-7777-||
||                                             ,
||-----------------------------------------------------------------------------
-----------------------||
||-12109o109o1210o109797oR-109o1210o109o79o109oo1210o910o1210o9h10po1210o-R-121
0o9h10po109o9h10po109o-||
||-----------------------E------------------------------------------------E----
-----------------------||
||-----------------------S------------------------------------------------S----
-----------------------||
||-----------------------T------------------------------------------------T----
-----------------------||
||-----------------------------------------------------------------------------
-----------------------||

BRIDGE

||-------------------------------------------------------------||
||-------------------------------------------------------------||
||----------------9999----------------9999----------------9999-||
||-777-999-111111-9999-777-999-111111-9999-777-999-111111-9999-||
||-777-999-111111-7777-777-999-111111-7777-777-999-111111-7777-||
||-555-777- 9 9 9------555-777- 9 9 9------555-777- 9 9 9------||
||
||-----------------------------------------------------------------||
||-----------------------------------------------------------------||
||----------------9999----------------13131313----------------9999-||
||-777-999-111111-9999-777-999-111111- x x x x-777-999-111111-9999-||
||-777-999-111111-7777-777-999-111111-11111111-777-999-111111-7777-||
||-555-777- 9 9 9------555-777- 9 9 9----------555-777- 9 9 9------||


||---------------------------------||
||---------------------------------||
||---------------------------------||
||-77------99------77------99------||
||-77------99------77------99------||
||-55------77------55------77------||
||
||
||---------------------------------||
||---------------------------------||
||---------------------------------||
||----6h7p----6h7p----6h7p----6h7p-||
||---------------------------------||
||---------------------------------||

VERSE 3

||--------------------------------||
||--------------------------------||
||999//---------------------------||
||999//-----------111111------7-7-||
||777//-----------111111------7-7-||
||---------------- 9 9 9------5-5-|| 2x


||-----------------------------------------------------------------------------
--------||
||-----------------------------------------------------------------------------
--------||
||-9999999999999999---------------------------9999999999999999-----------------
--------||
||-9999999999999999-1111111111111111-77777777-9999999999999999-1111111111111111
--7--9--||
||-7777777777777777-1111111111111111-77777777-7777777777777777-1111111111111111
--7--9--||
||------------------ 9 9 9 9 9 9 9 9-55555555------------------ 9 9 9 9 9 9 9 9
--5--7--||
||
||-----------------------------------------------------------------------------
--------||
||-----------------------------------------------------------------------------
--------||
||-9999999999999999-111111111111111313\16161616-9999999999999999-11111111111111
11------||
||-xxxxxxxxxxxxxxxx- x x x x x x x x x\ x x x x-xxxxxxxxxxxxxxxx- x x x x x x x
 x------||
||-7777777777777777- 9 9 9 9 9 9 91111\14141414-7777777777777777- 9 9 9 9 9 9 9
 9------||
||-----------------------------------------------------------------------------
--------||

play PRECHORUS
play CHORUS except sa huli ring lang last chord (B)



References

Acordes para guitarra
x

Todo acerca de Kamikaze