Acordes para guitarra

Indice Kaiser Chiefs

guitartabs





By BlackMist


Intro Part 1

E--------------------------------|----------------------------|---------------|
B--------------------------------|----------------------------|---------------|
G--------------------------------|----------------------------|---------------|
D--------------------------------|----------------------------|---------------|
A--4----4----2----2----0-----0---|-2----2---0---0-------------|---------------|
E--------------------------------|-------------------4------4-|---------------|

Intro Part 2

E------------------------------|------------------------------|------------------|
B------------------------------|------------------------------|------------------|
G------------------------------|------------------------------|------------------|
D------------------------------|------------------------------|------------------|
A------------------------------|---4------4---2-----2----0--0-|-2--2--0--0-------|
E--2---2---2---2-----0-----2---|------------------------------|--------------4-4-|

"Oh oh oh oh oh oh oh oh oh oh" Part

E----------------------------------------------------------------
B----------------------------------------------------------------
G----------------------------------------------------------------
D---4---4-------7----7------6----6----7-----6--------------------
A----------------------------------------------------------------
E---2---2-------5----5------4----4----5-----4-------0------------


Just Repeat the bars in this order, and you should be able to play the song fine.

Im pretty certain this is 100% right, but email if theres anythin wrong or theres probs

Acordes para guitarra
x

Todo acerca de Kaiser Chiefs