Acordes para guitarra

Indice Kaiser Chiefs

guitartabs





KAISER CHIEFS-OH MY GOD
this was the debut limited edition single from britains hottest new band the kaiser chiefs.
www.kaiserchiefs.co.uk

Piano Intro (chords Dm G)

Then over Dm G

E ---------------10----------------|
B ---------------10----------------|
G ---10-12^------10-------12^------|
D 12--------12---------------------|
A ---------------------------------|
E ---------------------------------|

listen to record for rhythm

Verse: Dm G

Bridge: G Dm C Bb x2, second time Bb for 4 bars

Verse Dm G

Bridge: G Dm C Bb x2, second time 4 bars on Bb

CHORUS: Dm Dm Dm Bb C      repeat as wished
         3 bars - 1 bar

Verse, Bridge, Chorus

Then SOLO

E 1-----------1---------------1-----------1-------------|
B --1-3---------1-3-5-6---------1-3---------1-3-5-6-8---|
G ------------------------------------------------------|  x2
D ------------------------------------------------------|
A ------------------------------------------------------|
E ------------------------------------------------------|
 then after solo from the last 8fret on Bstring, go up in semitones til you reach 21st 
on top E string.

Acordes para guitarra
x

Todo acerca de Kaiser Chiefs