Acordes para guitarra

Indice Kaiser Chiefs

guitartabs





Kaiser Chiefs – Modern Way

Intro
E-------------------------------------------------------------------------|
B-------------------------------------------------------------------------|
G-------------------------------------------------------------------------|
D-------------------------------------------------------------------------|
A----------------11---------------------14-------------------------7------|
E ------9--------------------12-------------------------5-----------------|

Pre-chorus
E------------------------------------------------------------------------|
B------------------------------------------------------------------------|
G------------------------------------------------------------------------|
D--------9------------7--------------------------------------------------|
A--------9------------7--------------------------------------------------|
E -------7------------5--------------------------------------------------|

Chorus
E-------------------------------------------------------------------------|
B-------------------------------------------------------------------------|
G-----6-------------------------------------------------------------------|
D-----6--------7-------- x5 ---------7------------9-----------------------|
A-----4--------7---------------------7------------9-----------------------|
E--------------5---------------------5------------7-----------------------|


Acordes para guitarra
x

Todo acerca de Kaiser Chiefs