Acordes para guitarra

Indice Julio Jaramillo

guitartabs

===================================================
| Julio Jaramillo                                 |
| MADRECITA IDEAL                                 |
| ---???---                                       |
| ---???--- ()                                    |
============================================TAB====

Hola! Soy nuevo en el mundo de la música, pero, aquí les traigo una 
canción de mi artista favorito JJ y se las dedico a todas las madres de Panamá.

Tempo 161
Compás 3 / 4
Valse

Intro (C – F - A7 - Dm - D7- Gm - Dm - A7-  Dm)

E||--0--1----2----3--|--2--3--5--6--5--3--|------5--6--8---10--|
B||--1--3----4----5--|--4--5--7--8--6--5--|------6--8--10--11--|
G||------------------|--------------------|--------------------|
D||------------------|--------------------|--------------------|
A||------------------|--------------------|--------------------|
E||------------------|--------------------|--------------------|



--8---6--10--8-------|--10--10--10--10--10--10--|--8------------------|
--10--8--11--10------|--10--10--10--10--10--10--|-----10--------------|
---------------------|--------------------------|---------11----------|
---------------------|--------------------------|-------------12------|
---------------------|--------------------------|---------------------|
---------------------|--------------------------|---------------------|



--------0--3--6--6--|--5--3--6--5------|--11--11--11--11--11--11--|
-----2--------------|------------------|--11--11--11--11--11--11--|
--2-----------------|------------------|--------------------------|
--------------------|------------------|--------------------------|
--------------------|------------------|--------------------------|
--------------------|------------------|--------------------------|



----10--10----8---10--|----8---8----6---8---|----6--6--------|
----10--10----10--10--|----10--10---8---10--|----8--8--------|
----------------------|---------------------|----------------|
----------------------|---------------------|----------------|
----------------------|---------------------|----------------|
----------------------|---------------------|----------------|



--10--9--10--9--10--8--|--------------9--10--9--|--12--9------9--12--10--|
-----------------------|--10------10------------|---------10-------------|
-----------------------|------10----------------|------------------------|
-----------------------|------------------------|------------------------|
-----------------------|------------------------|------------------------|
-----------------------|------------------------|------------------------|



--10------10-------------||
------10------10---------||
------------------10--7--||
-------------------------||
-------------------------||
-------------------------||






Verso 1



                    Dm

Escucha mi canción de amor

          D7                  Gm

Bien sabes tu que es para ti

                       C

La hice con la devoción

             A7              Dm

 Que es para mi una oración



Madrecita tu nombre es Dios

D7                     Gm

Abnegación luz y calor

                Dm

Felicidad adoración

      A7         Dm

La reina del hogar



Coro

                  C

Siempre tejiste con sonrisas

                                 F

Los amargos ratos y horas de dolor

           A7

Y ocultaste con valor

               Dm

Aquellas lágrimas de amor         A||--0---1---2---3---||

              C

Diste la sangre para que en mis venas

                  F

Yo tuviera siempre tu calor

                   E                        A      A7

Tu nombre evoco madrecita ideal

                   Dm A7              Dm

Tu nombre evoco madrecita ideal



Intro  C – F - A7 - Dm - D7- Gm - Dm - A7-  Dm



Verso 2

                      Dm

Tu vida es mi inspiración

   D7            Gm

Así viví con ilusión

                     A7

Viejita de mi ensoñación

                   Dm

Eres mi fe eres mi sol

                        D7

Quiero tenerte junto a mi

                 Gm

 Para vivir feliz los dos

                          Dm         A7

Para cantar y en ti confiar

                     Dm

Mis cuitas y dolor



Se repite el Coro...


JJ es el mejor!
Que Vivan las mamacitas!

Cualquier duda, comentario o corrección mándela a


===================================================
Colaboracion de fulanodetal07



Acordes para guitarra
x

Todo acerca de Julio Jaramillo