Acordes para guitarra

Indice Juana La Loca

guitartabs

===================================================
* Juana la Loca                                   *
* LA VIDA MODELO                                  *
* ---???---                                       *
* ---???--- ()                                    *
===================================================

==================LAS PISADAS==================
+---------------------------------------------+
| Juana la Loca                               |
| LA VIDA MODELO                              |
| ---???---                                   |
| ---???---                                   |
+---------------------------------------------+
==============DEL ROCK EN ESPA~OL==============

riff 1:
  
E-----------------------------------------
B-----------------------------------------
G-----------------------------------------
D------7-6-5-5-5---2-3-2-3----------------
G-5-5--5-4-3-3-3---0-1-0-1----------------
E-3-3-------------------------------------

riff 2:

E-------------------------------------------
B-------------------------------------------
G-------------------------------------------
D-7-7-7-7-7-7-7-7-5-5-5-5-7-7--5-3----------
A-5-5-5-5-5-5-5-5-3-3-3-3-5-5--3-1--5-------
E-----------------------------------3-------

con riff 1

Este es el camino,
donde todos buscan algo,
yo soy mi destino,
porque creo en lo que hago

La vida modelo, 
es un gran supermercado,
Vos podes ser libre, 
o podes ser dominado.

con riff 2

Es tu desicion,
quizá lo mejor llego.

riff 1

Despues del colegio,
Trabajar volverte viejo,
son los eslabones,
que la vida te propone.

riff 2

es tu desicion, 
quizas lo mejor llego.

riff 1

La vida modelo, 
es un gran supermercado,
Vos podes ser libre, 
o podes ser dominado.

riff 2

Es tu desicion,
quizá lo mejor llego.

riff 1

sha la la la, la la, la la...

riff 2 

Es tu desicion,
quizá lo mejor llego.

=================================================
Transcripcion de Mariano Penayo

Clorinda, Formosa, Argentina.

Correcciones son bienvenidas.



===================================================



Acordes para guitarra
x

Todo acerca de Juana La Loca