Acordes para guitarra

Indice Joan Sebastian

guitartabs

===================================================
* Joan Sebastian                                  *
* SECRETO DE AMOR                                 *
* ---???---                                       *
* ---???--- ()                                    *
============================================TAB====

La afinacion de las guitarras es normal...

Gtr I   (E A D G B E) - 
Gtr II  (E A D G B E) - 
Gtr III (E A D G B E) - 

Empezamos!!!

  Q=105
 1/4
  Gtr I
  W    W    W    W          E E   S S S S       S E.
|----|----|----|----------|-----|-------------|------------|
|----|----|----|----------|-----|-------------|------------|
|----|----|----|----------|-----|-------------|------------|
|----|----|----|----------|-----|---1-2-4-----|---4--------|
|----|----|----|----------|-----|-4-----------|------------|
|----|----|----|----------|---4-|-------------|------------|


               Q=84
  +Q           S S S  S   S S  S S   S S S S   S S S S
|------------|---4----9-|-8----9---|-4---5-4-|-2---4-2---|
|------------|---5---10-|-9---10---|-5---7-5-|-4---7-4---|
|------------|----------|----------|---------|-----------|
|-(4)--------|----------|----------|---------|-----------|
|------------|----------|----------|---------|-----------|
|------------|----------|----------|---------|-----------|


  S S S S   +S  E  S   +Q     +Q     +S  S E   S E.   +Q
|-0---2-0-|-(0)------|------|------|---------|------|------|
|-2---4-2-|-(2)-1--4-|-(4)--|-(4)--|-(4)-----|-4-5--|-(5)--|
|---------|----------|------|------|-------6-|------|------|
|---------|----------|------|------|-----6---|------|------|
|---------|----------|------|------|---------|------|------|
|---------|----------|------|------|---------|------|------|


  +Q     +Q     +Q     S E S   E S S   S S S S   S E.
|------|------|------|-------|-4-2---|---------|------|
|-(5)--|-(5)--|-(5)--|-----2-|-----2-|-5-------|-2-4--|
|------|------|------|---2---|-------|-------2-|------|
|------|------|------|-4-----|-------|-----4---|------|
|------|------|------|-------|-------|---------|------|
|------|------|------|-------|-------|---------|------|


  +Q     +Q     W    W          E S S   +S  S E   E E   Q
|------|------|----|----------|-------|---------|-----|----|
|-(4)--|-(4)--|----|----------|-----2-|-(2)-4-5-|---7-|-4--|
|------|------|----|----------|---1---|---------|-6---|----|
|------|------|----|----------|-2-----|---------|-----|----|
|------|------|----|----------|-------|---------|-----|----|
|------|------|----|----------|-------|---------|-----|----|


  Q    +Q     +Q     +Q     E S S   +S  S S S   E E   E. S
|-4--|-(4)--|-(4)--|-(4)--|-------|-----------|-----|-------|
|----|------|------|------|-------|-----------|-----|----4--|
|----|------|------|------|-------|-----5---5-|---6-|-------|
|----|------|------|------|-----6-|-(6)-------|-6---|-6-----|
|----|------|------|------|---6---|-----------|-----|-------|
|----|------|------|------|-4-----|-----------|-----|-------|


  +Q     +Q     +Q     +Q     E E   E E   Q    Q
|------|------|------|------|-----|-----|----|----|
|-(4)--|-(4)--|-(4)--|-(4)--|-----|---4-|-5--|-7--|
|------|------|------|------|-----|-6---|----|----|
|------|------|------|------|---6-|-----|----|----|
|------|------|------|------|-4---|-----|----|----|
|------|------|------|------|-----|-----|----|----|


                                         Q=92
                                        4/4
                                         Gtr III
  S E.   +Q     +Q     +Q     W          E E E E Q  Q
|---4--|-(4)--|-(4)--|-(4)--|----------|---------2-----|
|-5----|------|------|------|----------|-------2----5--|
|-6----|------|------|------|----------|-----2---------|
|------|------|------|------|----------|---4-----------|
|------|------|------|------|----------|---------------|
|------|------|------|------|----------|---------------|


  Q.   E H      E E E E E E E E   E E E E Q  Q    S S E E E Q  Q
|--------2----|---------0-------|---------0-----|-----------4--2---|
|-4-----------|-----2-----4-2---|-----2------2--|-------2----------|
|-------------|---1---1-------1-|---1---1-------|---------2--------|
|------4------|-----------------|-2-------------|-4---4------------|
|-------------|-----------------|---------------|------------------|
|-------------|-----------------|---------------|------------------|


  Q.   E Q  Q    E E E E Q  Q    S S E Q  H
|--------------|---------0-----|---------------|
|-4------4-----|-2---2------4--|-2-------------|
|-----------5--|---1---1-------|---------------|
|------6-------|---------------|---------------|
|--------------|---------------|---------------|
|--------------|---------------|---------------|


  Gtr I
  E S S S S S S E S S S S S S   E S S S S S S E S S S S S S
|---4---4---4-----4---4---4---|---4---4---4-----4---4---4---|
|---4---4---4-----4---4---4---|---4---4---4-----4---4---4---|
|---5---5---5-----5---5---5---|---5---5---5-----5---5---5---|
|-----------------------------|-----------------------------|
|-----------------------------|-----------------------------|
|-----------------------------|-----------------------------|


  E S S S S S S E S S S S S S   E S S S S S S E S S S S S S
|---4---4---4-----4---4---4---|---4---4---4-----4---4---4---|
|---5---5---5-----5---5---5---|---5---5---5-----5---5---5---|
|---6---6---6-----6---6---6---|---6---6---6-----6---6---6---|
|-----------------------------|-----------------------------|
|-----------------------------|-----------------------------|
|-----------------------------|-----------------------------|


  E S S S S S S E S S S S S S   E S S S S S S E S S S S S S
|---5---5---5-----5---5---5---|---5---5---5-----5---5---5---|
|---7---7---7-----7---7---7---|---7---7---7-----7---7---7---|
|---6---6---6-----6---6---6---|---6---6---6-----6---6---6---|
|-----------------------------|-----------------------------|
|-----------------------------|-----------------------------|
|-----------------------------|-----------------------------|


  E S S S S S S E S S S S S S   S S E E S S H      E E E E E S S S S E
|---2---2---2-----2---2---2---|-2----------------|---------5---4-5---0--|
|---4---4---4-----4---4---4---|-4-----------0----|-------2-----5-7---2--|
|---4---4---4-----4---4---4---|-4-----------1----|-----2----------------|
|-----------------------------|-----------0-3----|---4------------------|
|-----------------------------|------------------|----------------------|
|-----------------------------|------------------|----------------------|


                                            Q=94             Q=96
  H    +S  S E Q    E E E E E S S S S S S   +H      E  E E E
|-2----(2)--------|-----------4---4-5---4-|-(4)-----0----4-0---|
|-4----(4)--------|-----5-4-5-5---5-7---5-|-(5)----(5)---------|
|-----------------|---1-------------------|------------1-------|
|-----------------|-----------------------|--------------------|
|-----------------|-----------------------|--------------------|
|-----------------|-----------------------|--------------------|


                          Q=98                        Q=102
                                                     2/4
  E E E E S S S S E S S   +Q.   E E E Q    W          E S S S S S S
|---------2-4-----0-----|---------0---4--|----------|---4---4---4----|
|-----1-4---7---1---1-4-|-(4)-------2----|----------|---5---5---5----|
|---1-------------------|-------1--------|----------|---6---6---6----|
|-----------------------|----------------|----------|----------------|
|-----------------------|----------------|----------|----------------|
|-----------------------|----------------|----------|----------------|


  E S S S S S S   E S S S S S S
|---4---4---4---|---4---4---4---|
|---5---5---5---|---4---4---4---|
|---6---6---6---|---5---5---5---|
|---------------|---------------|
|---------------|---------------|
|---------------|---------------|


  E S S S S S S   E S S S S S S   E S S S S S S
|---4---4---4---|---4---4---4---|---4---4---4---|
|---4---4---4---|---4---4---4---|---4---4---4---|
|---5---5---5---|---5---5---5---|---5---5---5---|
|---------------|---------------|---------------|
|---------------|---------------|---------------|
|---------------|---------------|---------------|


  E S S S S S S   E S S S S S S
|---4---4---4---|---4---4---4---|
|---5---5---5---|---5---5---5---|
|---6---6---6---|---6---6---6---|
|---------------|---------------|
|---------------|---------------|
|---------------|---------------|


  E S S S S S S   E S S S S S S   E S S S S S S
|---4---4---4---|---4---4---4---|---4---4---4---|
|---5---5---5---|---5---5---5---|---4---4---4---|
|---6---6---6---|---6---6---6---|---5---5---5---|
|---------------|---------------|---------------|
|---------------|---------------|---------------|
|---------------|---------------|---------------|


  E S S S S S S   E S S S S S S
|---4---4---4---|---4---4---4---|
|---4---4---4---|---4---4---4---|
|---5---5---5---|---5---5---5---|
|---------------|---------------|
|---------------|---------------|
|---------------|---------------|


  E S S S S S S   E S S S S S S   E S S S S S S
|---4---4---4---|---4---4---4---|---4---4---4---|
|---4---4---4---|---5---5---5---|---5---5---5---|
|---5---5---5---|---6---6---6---|---6---6---6---|
|---------------|---------------|---------------|
|---------------|---------------|---------------|
|---------------|---------------|---------------|


  E S S S S S S   E S S S S S S
|---4---4---4---|---4---4---4---|
|---5---5---5---|---4---4---4---|
|---6---6---6---|---5---5---5---|
|---------------|---------------|
|---------------|---------------|
|---------------|---------------|


  E S S S S S S   E S S S S S S   E S S S S S S
|---4---4---4---|---4---4---4---|---4---4---4---|
|---4---4---4---|---4---4---4---|---4---4---4---|
|---5---5---5---|---5---5---5---|---5---5---5---|
|---------------|---------------|---------------|
|---------------|---------------|---------------|
|---------------|---------------|---------------|


  E S S S S S S   E S S S S S S
|---4---4---4---|---4---4---4---|
|---5---5---5---|---5---5---5---|
|---6---6---6---|---6---6---6---|
|---------------|---------------|
|---------------|---------------|
|---------------|---------------|


  E S S S S S S   E S S S S S S   E S S S S S S
|---4---4---4---|---4---4---4---|---4---4---4---|
|---5---5---5---|---5---5---5---|---5---5---5---|
|---6---6---6---|---6---6---6---|---6---6---6---|
|---------------|---------------|---------------|
|---------------|---------------|---------------|
|---------------|---------------|---------------|


  E S S S S S S   E S S S S S S
|---4---4---4---|---4---4---4---|
|---4---4---4---|---4---4---4---|
|---5---5---5---|---5---5---5---|
|---------------|---------------|
|---------------|---------------|
|---------------|---------------|


  E S S S S S S   E S S S S S S   E S S S S S S
|---4---4---4---|---4---4---4---|---4---4---4---|
|---4---4---4---|---4---4---4---|---5---5---5---|
|---5---5---5---|---5---5---5---|---6---6---6---|
|---------------|---------------|---------------|
|---------------|---------------|---------------|
|---------------|---------------|---------------|


  E S S S S S S   E S S S S S S
|---4---4---4---|---4---4---4---|
|---5---5---5---|---5---5---5---|
|---6---6---6---|---6---6---6---|
|---------------|---------------|
|---------------|---------------|
|---------------|---------------|


  E S S S S S S   E S S S S S S   E S S S S S S
|---4---4---4---|---4---4---4---|---4---4---4---|
|---5---5---5---|---4---4---4---|---4---4---4---|
|---6---6---6---|---5---5---5---|---5---5---5---|
|---------------|---------------|---------------|
|---------------|---------------|---------------|
|---------------|---------------|---------------|


                                  Q=92
  E S S S S S S   E S S S S S S   S S E Q
|---4---4---4---|---4---4---4---|-4--------|
|---4---4---4---|---4---4---4---|-5--------|
|---5---5---5---|---5---5---5---|-6--------|
|---------------|---------------|----------|
|---------------|---------------|----------|
|---------------|---------------|----------|


  W          E E E E       E S S S S E   H
|----------|-------------|-5---4-5---0-|-2----|
|----------|-------2-----|-----5-7---2-|-4----|
|----------|-----2-------|-------------|------|
|----------|---4---------|-------------|------|
|----------|-------------|-------------|------|
|----------|-------------|-------------|------|


  S S E Q    E E E E   E S S S S S S
|-2--------|-----0---|-0-4---4-5---4-|
|-4--------|-------4-|---5---5-7---5-|
|----------|---1-----|---------------|
|----------|---------|---------------|
|----------|---------|---------------|
|----------|---------|---------------|


  Q=94                 Q=96
  +H        E  E E E   E E E E   S S S S E S S
|-(4)----|--0----4-0-|---------|-2-4-----0-----|
|-(5)----|-(5)-------|-----1-4-|---7---1---1-4-|
|--------|-----1-----|---1-----|---------------|
|--------|-----------|---------|---------------|
|--------|-----------|---------|---------------|
|--------|-----------|---------|---------------|


  Q=98
  +Q.   E   E E Q    W          W
|---------|-0---4--|----------|----------|
|-(4)-----|---2----|----------|----------|
|-------1-|--------|----------|----------|
|---------|--------|----------|----------|
|---------|--------|----------|----------|
|---------|--------|----------|----------|


  Q=102
  E S S S S S S   E S S S S S S   E S S S S S S
|---4---4---4---|---4---4---4---|---4---4---4------|
|---5---5---5---|---5---5---5---|---4---4---4------|
|---6---6---6---|---6---6---6---|---5---5---5------|
|---------------|---------------|------------------|
|---------------|---------------|------------------|
|---------------|---------------|------------------|


  E S S S S S S   E S S S S S S
|---4---4---4---|---4---4---4---|
|---4---4---4---|---4---4---4---|
|---5---5---5---|---5---5---5---|
|---------------|---------------|
|---------------|---------------|
|---------------|---------------|


  E S S S S S S   E S S S S S S   E S S S S S S
|---4---4---4---|---4---4---4---|---4---4---4---|
|---4---4---4---|---5---5---5---|---5---5---5---|
|---5---5---5---|---6---6---6---|---6---6---6---|
|---------------|---------------|---------------|
|---------------|---------------|---------------|
|---------------|---------------|---------------|


  E S S S S S S   E S S S S S S
|---4---4---4---|---4---4---4---|
|---5---5---5---|---5---5---5---|
|---6---6---6---|---6---6---6---|
|---------------|---------------|
|---------------|---------------|
|---------------|---------------|


  E S S S S S S   E S S S S S S   E S S S S S S
|---4---4---4---|---4---4---4---|---4---4---4---|
|---4---4---4---|---4---4---4---|---4---4---4---|
|---5---5---5---|---5---5---5---|---5---5---5---|
|---------------|---------------|---------------|
|---------------|---------------|---------------|
|---------------|---------------|---------------|


  E S S S S S S   E S S S S S S
|---4---4---4---|---4---4---4---|
|---4---4---4---|---5---5---5---|
|---5---5---5---|---6---6---6---|
|---------------|---------------|
|---------------|---------------|
|---------------|---------------|


  E S S S S S S   E S S S S S S   E S S S S S S
|---4---4---4---|---4---4---4---|---4---4---4---|
|---5---5---5---|---5---5---5---|---4---4---4---|
|---6---6---6---|---6---6---6---|---5---5---5---|
|---------------|---------------|---------------|
|---------------|---------------|---------------|
|---------------|---------------|---------------|


  E S S S S S S   E S S S S S S
|---4---4---4---|---4---4---4---|
|---4---4---4---|---4---4---4---|
|---5---5---5---|---5---5---5---|
|---------------|---------------|
|---------------|---------------|
|---------------|---------------|


  E S S S S S S   E S S S S S S   E S S S S S S
|---4---4---4---|---4---4---4---|---4---4---4---|
|---4---4---4---|---5---5---5---|---5---5---5---|
|---5---5---5---|---6---6---6---|---6---6---6---|
|---------------|---------------|---------------|
|---------------|---------------|---------------|
|---------------|---------------|---------------|


  E S S S S S S   E S S S S S S
|---4---4---4---|---4---4---4---|
|---5---5---5---|---5---5---5---|
|---6---6---6---|---6---6---6---|
|---------------|---------------|
|---------------|---------------|
|---------------|---------------|


  E S S S S S S   E S S S S S S   E S S S S S S
|---4---4---4---|---4---4---4---|---4---4---4---|
|---5---5---5---|---4---4---4---|---4---4---4---|
|---6---6---6---|---5---5---5---|---5---5---5---|
|---------------|---------------|---------------|
|---------------|---------------|---------------|
|---------------|---------------|---------------|


  E S S S S S S   E S S S S S S
|---4---4---4---|---4---4---4---|
|---4---4---4---|---4---4---4---|
|---5---5---5---|---5---5---5---|
|---------------|---------------|
|---------------|---------------|
|---------------|---------------|


  E S S S S S S   E S S S S S S   E S S S S S S
|---4---4---4---|---4---4---4---|---4---4---4---|
|---5---5---5---|---5---5---5---|---5---5---5---|
|---6---6---6---|---6---6---6---|---6---6---6---|
|---------------|---------------|---------------|
|---------------|---------------|---------------|
|---------------|---------------|---------------|


  E S S S S S S   E S S S S S S
|---4---4---4---|---4---4---4---|
|---5---5---5---|---4---4---4---|
|---6---6---6---|---5---5---5---|
|---------------|---------------|
|---------------|---------------|
|---------------|---------------|


  E S S S S S S   E S S S S S S   E S S S S S S
|---4---4---4---|---4---4---4---|---4---4---4---|
|---4---4---4---|---4---4---4---|---4---4---4---|
|---5---5---5---|---5---5---5---|---5---5---5---|
|---------------|---------------|---------------|
|---------------|---------------|---------------|
|---------------|---------------|---------------|


                       Q=84
                      1/4
  S S E E S S   H      S E S   E S S   +S  S E   +Q
|-4-----------|------|-------|-4-2---|---------|------|
|-5-----------|-0----|-----2-|-----2-|-(2)---4-|-(4)--|
|-6-----------|-1----|---2---|-------|-----2-6-|-(6)--|
|-----------0-|-3----|-4-----|-------|-----4---|------|
|-------------|------|-------|-------|---------|------|
|-------------|------|-------|-------|---------|------|


  +Q     +S  S E   W    W          W          S S S S
|------|---------|----|----------|----------|------------|
|-(4)--|-(4)-----|----|----------|----------|-------0----|
|-(6)--|-(6)-----|----|----------|----------|-----1------|
|------|---------|----|----------|----------|-2-4--------|
|------|---------|----|----------|----------|------------|
|------|---------|----|----------|----------|------------|


  S S S S   S S S S   +Q     +Q     S S S S
|---0-2-4-|---7-4-7-|-(7)--|-(7)--|-------2-|
|-4-------|---------|------|------|---------|
|---------|---------|------|------|-----2---|
|---------|---------|------|------|-1-4-----|
|---------|---------|------|------|---------|
|---------|---------|------|------|---------|


                                              Q=102
                                             2/4
  S S S S   S E S   Q    +Q     +Q     +Q     W
|-5---4---|-2-0---|----|------|------|------|------|
|-----5---|-4-2---|-4--|-(4)--|-(4)--|-(4)--|------|
|---------|-------|-5--|-(5)--|-(5)--|-(5)--|------|
|---------|-------|-6--|-(6)--|-(6)--|-(6)--|------|
|---------|-------|----|------|------|------|------|
|---------|-------|----|------|------|------|------|


  W      E S S S S S S   E S S S S S S   E S S S S S S   E S S S S S S
|------|---4---4---4---|---4---4---4---|---4---4---4---|---4---4---4----|
|------|---5---5---5---|---5---5---5---|---4---4---4---|---4---4---4----|
|------|---6---6---6---|---6---6---6---|---5---5---5---|---5---5---5----|
|------|---------------|---------------|---------------|----------------|
|------|---------------|---------------|---------------|----------------|
|------|---------------|---------------|---------------|----------------|


  E S S S S S S   E S S S S S S
|---4---4---4---|---4---4---4---|
|---4---4---4---|---4---4---4---|
|---5---5---5---|---5---5---5---|
|---------------|---------------|
|---------------|---------------|
|---------------|---------------|


  E S S S S S S   E S S S S S S   E S S S S S S
|---4---4---4---|---4---4---4---|---4---4---4---|
|---5---5---5---|---5---5---5---|---5---5---5---|
|---6---6---6---|---6---6---6---|---6---6---6---|
|---------------|---------------|---------------|
|---------------|---------------|---------------|
|---------------|---------------|---------------|


  E S S S S S S   E S S S S S S
|---4---4---4---|---4---4---4---|
|---5---5---5---|---4---4---4---|
|---6---6---6---|---5---5---5---|
|---------------|---------------|
|---------------|---------------|
|---------------|---------------|


  E S S S S S S   E S S S S S S   E S S S S S S
|---4---4---4---|---4---4---4---|---4---4---4---|
|---4---4---4---|---4---4---4---|---4---4---4---|
|---5---5---5---|---5---5---5---|---5---5---5---|
|---------------|---------------|---------------|
|---------------|---------------|---------------|
|---------------|---------------|---------------|


  E S S S S S S   E S S S S S S
|---4---4---4---|---4---4---4---|
|---5---5---5---|---5---5---5---|
|---6---6---6---|---6---6---6---|
|---------------|---------------|
|---------------|---------------|
|---------------|---------------|


  E S S S S S S   E S S S S S S   E S S S S S S
|---4---4---4---|---4---4---4---|---4---4---4---|
|---5---5---5---|---5---5---5---|---4---4---4---|
|---6---6---6---|---6---6---6---|---5---5---5---|
|---------------|---------------|---------------|
|---------------|---------------|---------------|
|---------------|---------------|---------------|


  E S S S S S S   E S S S S S S
|---4---4---4---|---4---4---4---|
|---4---4---4---|---4---4---4---|
|---5---5---5---|---5---5---5---|
|---------------|---------------|
|---------------|---------------|
|---------------|---------------|


  E S S S S S S   E S S S S S S   E S S S S S S
|---4---4---4---|---4---4---4---|---4---4---4---|
|---4---4---4---|---5---5---5---|---5---5---5---|
|---5---5---5---|---6---6---6---|---6---6---6---|
|---------------|---------------|---------------|
|---------------|---------------|---------------|
|---------------|---------------|---------------|


  E S S S S S S   E S S S S S S
|---4---4---4---|---4---4---4---|
|---5---5---5---|---5---5---5---|
|---6---6---6---|---6---6---6---|
|---------------|---------------|
|---------------|---------------|
|---------------|---------------|


  E S S S S S S   E S S S S S S   E S S S S S S
|---4---4---4---|---4---4---4---|---4---4---4---|
|---4---4---4---|---4---4---4---|---4---4---4---|
|---5---5---5---|---5---5---5---|---5---5---5---|
|---------------|---------------|---------------|
|---------------|---------------|---------------|
|---------------|---------------|---------------|


  E S S S S S S
|---4---4---4------*|
|---4---4---4------*|
|---5---5---5------*|
|------------------*|
|------------------*|
|------------------*|

FIN!!!
- BUENO AQUI ABAJO ESTA EL SIGNIFICADO DE LAS LETRAS Y LOS SIGNOS...
- ESPERO QUE LES HAYA AGRADADO Y SOBRETODO QUE LE HAYAN ENTENDIDO...
- SI QUIEREN ALGUNA PETICION PUES TAMBIEN HECHENME UN MAIL...
- ESTA CANCION Y OTRAS LAS TENGO EN ARCHIVOS POWERTAB, POR SI ALGUIEN LA QUIERE...
  PUES HECHENME UN MAIL PIDIENDOLAS...
- LOS VERE EN LA PROXIMA CANCION!!!...


NOTA!!!: PUEDEN UTILIZAR ESTA TAB PARA PUBLICARLA DONDE USTEDES
QUIERAN, PERO POR FAVOR LES RUEGO QUE ME DEN LOS CREDITOS COMO
TRANSCRIPTOR DE LA MISMA...GRACIAS!!!



LEYENDA DE LAS NOTAS:

W = (REDONDA)     NOTA COMPLETA
H = (BLANCA)      MEDIA NOTA
Q = (NEGRA)       CUARTO DE NOTA
E = (CORCHEA)     OCTAVO DE NOTA
S = (SEMICORCHEA) DIECISEISAVA DE NOTA
T = (FUSA)        TREINTAIDOSAVA DE NOTA
X = (SEMIFUSA)    SESENTAICUATROAVA DE NOTA

a  =  ACCIACCATURA
+  =  LIGADURA
.  =  AUMENTA LA DURACION DE LA NOTA
.. =  AUMENTA LA DOBLE DE LA DURACION DE LA NOTA


LEYENDA DEL 'PENTAGRAMA'
 |  - COMPAS
||  - DOBLE COMPAS
||o - ES DONDE VA A COMENZAR CUANDO ALGO SE VA A REPETIR
o|| - ES DONDE VA A TERMINAR CUANDO ALGO SE VA A REPETIR
*|  - FIN DE LA CANCION
 :  - COMPAS LIBRE
 $  - SEGNO (AL VER ESTE SIGNO, TENEMOS QUE RETROCEDER HASTA VER EL SIGNO ANTERIOR $...)
 &  - CODA (SIGNIFICA QUE DEBES PASAR LA SIGUIENTE SIGNO &)

===================================================
Colaboracion de sNaKePiTs (Nestor Sadao Arechiga Cervantes)



Acordes para guitarra
x

Todo acerca de Joan Sebastian