Acordes para guitarra

Indice Jaivas

guitartabs

=====================================================================
| ARTISTA: Los Jaivas                                               |
| CANCION: Sube a nacer conmigo hermano                             |
| AUTOR:   Los jaivas                                               |
| ALBUM:   -?-                                                      |
+------------------------------------------------------TAB-jaiv0042-+
| TRANS:   miguel sandoval                                          |
=====================================================================

hola amigos, aqui les mando el solo de la intro y del medio
de la cancion, que va a la par con el sintetizador de eduardo 
parra, disculpen la demora , luego les voy a mandar mas tabs de los jaivas.



1/----------------------16-14-------------------------------14-17-16~~-
2/----------14-16-14-17-------16~~--------14-16-14-16-17-16------------
3/-------13----------------------------13------------------------------
4/-11-14-------------------------11-14---------------------------------


1/----16-16-16-16-16-16-16-16-17-16-14-16~---16-16-16-16-16-16-16-16-17-16-14-16-----
2/-------------------------------------------------------------------------------16~~
3/-13-------------------------------------13-----------------------------------------
4/-----------------------------------------------------------------------------------


1/-------------------------------14-17-16-------------------------------14-17-16-
2/-------------14-16-14-16-17-16----------------------14-16-14-16-17-16----------
3/----------13-------------------------------------13----------------------------
4/-11-11-14-------------------------------11-11-14-------------------------------


1/----16-16-16-16-16-16-16-16-17-16-14-16---------------------------------------------
2/-------------------------------------------14-14-14-14-14-14-14-14-17-16-14-16------
3/-13-------------------------------------13-------------------------------------13~~-
4/------------------------------------------------------------------------------------


1/-------------------------------14-17-16~~------------------------16-14----------------
2/-------------14-16-14-16-17-16-----------------------14-16-14-17-------16~~-----------
3/----------13--------------------------------------13----------------------------------
4/-11-11-14--------------------------------11-11-14-------------------------------------
5/--------------------------------------------------------------------------------3-4~~-
6/----------------------------------------------------------------------------4-6-------



este solo hay que sacarlo con paciencia ya que tiene muchos saltos
de cuerdas y muy rapidos, por lo que hay que usar de preferencia una
uņeta de calibre medio o dura, para no tener problemas, ya que con una
uņeta o pua blanda en los licks rapidos puede pasar que no le des con 
tanta fuerza a una cuerda y por lo tanto se escuche mal.lo otro es que 
tiene muchos vibratos, son mas faciles de hacerlo y suenan mejor tirando
la cuerda para arriba y para abajo, como si fuera un bending, pero sin llegar
o pasarse a la nota siguiente, y esto hacerlo con movimientos rapidos.
este es un buen ejemplo de que los jaivas son buenos musicos y que no tienen
que envidiarle nada a grupos rockeros, ya que como aqui lo ven tambien pueden
hacer solos o licks rapidos y de calidad, otro ejemplo es el solo de la cancion
'la conquistada', de la version en vivo del album 'el bar lo que nunca se supo'
aunque se escucha mejor el mismo solo, en el video del festival de viņa del aņo
1983, este solo luego se los mando.


1012345724

Acordes para guitarra
x

Todo acerca de Jaivas