Acordes para guitarra

Indice Green Day

guitartabs





Tabbed By: Chris
Band:Green Day
Song:Christy Road
Album:Kerplunk (1992 Look Out! Records)
Guitar:Billie Joe Armstrong

Key:
Pm-Palm-mute
x-mute

Verse:
              G5                    E5                       C5
e-------------------------------------------------------------------------|
b-------------------------------------------------------------------------|
g-------------------------------------------------5-5-5-5-5-5-5-5-5-5-5-5-|
D-5-5-5-5-5-5-5-5-5-5-5-5-2-2-2-2-2-2-2-2-2-2-2-2-3-3-3-3-3-3-3-3-3-3-3-3-|
A-5-5-5-5-5-5-5-5-5-5-5-5-2-2-2-2-2-2-2-2-2-2-2-2-3-3-3-3-3-3-3-3-3-3-3-3-|
E-3-3-3-3-3-3-3-3-3-3-3-3-0-0-0-0-0-0-0-0-0-0-0-0-------------------------|
Pm------------------------------------------------------------------------|

Dsus
e-0----------0-------0-------|
b-3--3---3-----3---3---3---3-|
g-2----2---2-----2-------2---|
D-0--------------------------|(whole verse x2)
A----------------------------|
E----------------------------|

Chorus:
        C5               G5     Dsus
e---------------------------------0----------0-------0-------|
b---------------------------------3--3---3-----3---3---3---3-|
g-5-5-5-5-5-5-5-5-----------------2----2---2-----2-------2---|
D-5-5-5-5-5-5-5-5-5-5-5-5-5-5-5-5-0--------------------------|(x3...)
A-3-3-3-3-3-3-3-3-5-5-5-5-5-5-5-5----------------------------|
E-----------------3-3-3-3-3-3-3-3----------------------------|
Pm-------------------------------|
 G5       C5        D5
e-----------------------|
b-----------------------|
g-5-----------------7---|
D-5--------5--------7---|(x1 at end of chorus)
A-3--------5--------5---|
E----------3------------|

(whole)verse x2
(whole)chorus x2

Bridge/Outro:
  G5   F5    C5  F5
e--------------------|
b--------------------|
g------------5-5-----|
D-5-5--xx3-3-5-5-xx3-|(x6)
A-5-5--xx3-3-3-3-xx3-|
E-3-3--xx1-1-----xx1-|

Interlude Riff A.
        G5              Cb5            C5               F5
e-----------------------------------------------------------------|
b-----------------------------------------------------------------|
g-----------------4-4-4-4-4-4-4-4-5-5-5-5-5-5-5-5-----------------|
D-5-5-5-5-5-5-5-5-4-4-4-4-4-4-4-4-5-5-5-5-5-5-5-5-3-3-3-3-3-3-3-3-|(x2)
A-5-5-5-5-5-5-5-5-2-2-2-2-2-2-2-2-3-3-3-3-3-3-3-3-3-3-3-3-3-3-3-3-|
E-3-3-3-3-3-3-3-3---------------------------------1-1-1-1-1-1-1-1-|
Pm----------------------------------------------------------------|

Riff B.
 F5   G5         C5
e-------------------------|
b-------------------------|
g---------5-5-5-5-5-5-5-5-|
D-3-3-5-5-5-5-5-5-5-5-5-5-|(x3)
A-3-3-5-5-3-3-3-3-3-3-3-3-|
E-1-1-3-3-----------------|

Riff C.  
 F5                      G5               F5        C5
e-----------------------------------------------------------------|
b-----------------------------------------------------------------|
g-------------------------------------------------5-5-5-5-5-5-5-5-|
D-3-3-3-3-3-3-3-3-5-5-5-5-5-5-5-5-3-3-3-3-3-3-3-3-5-5-5-5-5-5-5-5-|(x1)
A-3-3-3-3-3-3-3-3-5-5-5-5-5-5-5-5-3-3-3-3-3-3-3-3-3-3-3-3-3-3-3-3-|
E-1-1-1-1-1-1-1-1-3-3-3-3-3-3-3-3-1-1-1-1-1-1-1-1-----------------|
Pm----------------------------------------------------------------|

Bridge/Outro x4

That's it! Now go out and play it! Yeah!!!
===========GREEN DAY - Christy Road
Tabbed By: Nick


VERSES
G|-----------------------999999|
D|-9999999-777777-999999-999999|
A|-9999999-777777-999999-777777|
E|-7777777-555555-777777-------|X2
PM..............................

CHOURS
G|-999999------------|
D|-999999-77777777777|
A|-777777-77777777777|
E|--------55555555555|X2

SOLO
G|-----------------999-XXX-888-XXX-666-XXX|
D|-999-XXX-777-XXX-999-XXX-888-XXX-666-XXX|
A|-999-XXX-777-XXX-777-XXX-666-XXX-444-XXX|
Acordes para guitarra
x

Todo acerca de Green Day