Acordes para guitarra

Indice Gary Alt

guitartabs





------------------------------------------------------------GARY ALT - LOST
------------------------------------------------------------

BY: DEREK

e |---------0---------------0---------------0-------|
B |-----3-----3---3-----3-----3---3-----3-----3---3-|
G |---2---2-----2-----3---3-----3-----4---4-----4---|
D |-0---------------0---------------0---------------|
A |-------------------------------------------------|
E |-------------------------------------------------|

e |---------0---------------0---------------0-------|
B |-----3-----3---3-----3-----3---3-----3-----3---3-|
G |---5---5-----5-----4---4-----4-----3---3-----3---|
D |-0---------------5---------------5---------------|
A |-------------------------------------------------|
E |-------------------------------------------------|

e |---------0---------------0---------------0-------|
B |-----3-----3---3-----3-----3---3-----3-----3---3-|
G |---2---2-----2-----2---2-----2-----2---2-----2---|
D |-4---------------3---------------2---------------|
A |-------------------------------------------------|
E |-------------------------------------------------|

e |---------0---------------0-------2---------------|
B |-----2-----2---2-----3-----3---3-3---------------|
G |---2---2-----2-----2---2-----2---2---------------|
D |-2---------------0---------------0---------------|
A |---------------------------------0---------------|
E |---------------------------------2---------------|

Acordes para guitarra
x

Todo acerca de Gary Alt