Acordes para guitarra

Indice Franco De Vita

guitartabs

===================================================
| Franco de Vita                                  |
| TRAIGO UNA PENA                                 |
| Franco de vita                                  |
| ---???--- ()                                    |
============================================BAS====

Verso (empieza el bajo cuando dice: No sé muy bien qué le pasa...)
                                                   4x
G||-----------------------|------------------------||
D||*----------------------|-----------------------*||
A||-----------------------|--7--7----5----5----5---||
E||*--5------5--7------7--|-----------------------*||
B||-----------------------|------------------------||


'Precoro'  (Por eso, ahhh....)                                                

  
--------------------------|------------------------|
--------------------------|------------------------|
--------------------------|------------------------|
--0--0--0--0--0--0--0--0--|--0--0--0--0--0--0------|
--------------------------|------------------------|


Coro                                              4x
|-----------------------|-------------------------||
|*----------------------|------------------------*||
|-----------------------|--7--7----5----5---------||
|*--5------5--7------7--|------------------0--3--*||
|-----------------------|-------------------------||


Variación #1 del Verso                                                
----------------------|-----9------------------|
----------------------|------------------------|
----------------------|--7-----7--5----5----5--|
--5------5--7------7--|------------------------|
----------------------|------------------------|


Variación #2 del Verso                                                 
----------------------|-------------------------|
----------------------|-------------------------|
----------------------|--7-----7--5----5--------|
--5------5--7------7--|-----7-------------0--0--|
----------------------|-------------------------|


Variación #3 del Verso                                                
----------------------|--------9--7----9-------|
----------------------|-----9-------------7----|
----------------------|--7---------------------|
--5------5--7------7--|------------------------|
----------------------|------------------------|


Puente   (minuto 2:28)                                             
------------------------|----------------------|
------------------------|----------------------|
-----------4------------|----7-------7--5------|
--5--5--5-----5------7--|---------7------------|
------------------------|----------------------|


                                                
------------------------|----------------------|
------------------------|---------6------------|
-----------4------------|----7-------7--5------|
--5--5--5-----5------7--|----------------------|
------------------------|----------------------|


Parte A (por primera vez en el minuto 2:43) (Las notas de la cuerda E y A son 

en pop, y las de la cuerda D y G en slap) 
                                                     3x
|-------------------------|-----9-------------7------||
|*-------7--------9-------|-------------------------*||
|-------------------------|--7-----7--5----5-----5---||
|*--5-------5--7-----7----|-------------------------*||
|-------------------------|--------------------------||


                                     Fin de la Parte A      
------------------------||------9-------------7---7--|
-------7--------9-------||*--------------------------|
------------------------||---7-----7--5----5----5----|
--5-------5--7-----7----||*--------------------------|
------------------------||---------------------------|


Parte B (por primera vez en el minuto 2:58) (La octava de arriba en slap, la 

de abajo en pop)
                                                        2x
-------10---------12--------|---------------------------||
----------------------------|-----10-------------8-----*||
--8--------8--10------10----|---------------------------||
----------------------------|--8------8--6----6-----6--*||
----------------------------|---------------------------||

Bueno aquí está la base de la canción. Tiene muchas partes y el orden varía a 

lo largo de la canción. El orden se los dejo para que lo saquen de oído ;). 

El tab no está completo, porque el bajista hace muchísimas variaciones, ahí 

les coloqué 3, pero hay muchas más (con las quintas, terceras y octavas 

principalmente). Última cosa: el puente tiene antes unos compases donde se 

tocan los acordes de la canción (A, B, E, D) (del minuto 1:58 al 2:28), un 

slide y otras cosas..
No es el tab perfecto, pero no lo había en el archivo, así que mejor algo que 

nada! ;)
Meir
VIVA VENEZUELA!!!

===================================================
Colaboracion de Meir



Acordes para guitarra
x

Todo acerca de Franco De Vita