Acordes para guitarra

Indice Franco De Vita

guitartabs

===================================================
| Franco de Vita                                  |
| LOS HIJOS DE LA OSCURIDAD                       |
| ---???---                                       |
| ---???--- ()                                    |
===================================================

Am
e----------0--|--------------------|
B-1--0-1-3---3|-1-0----------------|
G--2----------|-----2--------------|
D-------------|--------------------|
A-------------|--------------------|
E-------------|--------------------|
 
 Am           E                        Am
'Y conocen el hambre y la muerte de cerca;
 Am           E                        Am
saben más de la vida de lo que te parezca;

F          G riff 1 e--0--3-1-0+ Am        Em 
                    B-0--   
y caminan descalzos con sus callos de asfalto.
F          G                       Am  riff 2 e----8---10-10/12
                                              B-10-------------10-10   
Algunos más altos, pero yo te aseguro,
F          G             Am
no más de diez años tendrán.' 

 Am           E                        Am
'Quién los baja a la vida ellos jamás lo supieron;
 Am           E                        Am
No tendría un par de años cuando allí lo dejaron;
F          G riff 1 e--0--3-1-0+ Am        Em 
                    B-0--   
o por razones diversas o simplemente inconsciencia.
F          G                       Am 
Lo cierto es que ahora tienen sitio seguro 
F          G           C 
los hijos de la oscuridad.'

                   G                    Am
'Debajo de la ciudad donde la vida no cuenta,
F          G           C
sino cinco minutos de más.
                   G                           Am
Luchando un trozo de pan entre la peste y la bestia,
F          G           Am 
los hijos de la oscuridad.'

 Am           E                        Am
'Y se le ha visto inhalando unos restos de cola
 Am           E                        Am
para burlar el hambre por unas pocas horas.
F          G riff 1 e--0--3-1-0+ Am        Em 
                    B-0--   
ohhh y se gana la vida hurgando entre la basura;
F          G                       Am 
tan llenos de rabia como llenos de duda,
F          G           C 
los hijos de la oscuridad.'

                   G                    Am
'Debajo de la ciudad donde la vida no cuenta,
F          G           C
sino cinco minutos de más.
                   G                           Am
Luchando un trozo de pan entre la peste y la bestia,
F          G           Am 
los hijos de la oscuridad.'

solo 
e-------------------------|------------5-7-7/8----5/7/5--|
B-------------------------|-----------5----------5-------|
G-----9/10/9---7----------|----------5-------------------|
D--77------------10-9--7-6|---7--7-9---------------------|
A-------------------------|--7--7------------------------|
E-------------------------|------------------------------|

e----10/12/10------------------------------|-----------------------|
B--10----------13-12---10--9--12-9-12------|-----------------------|
G------------------------------------9-----|---------7-7(bending)--|
D------------------------------------------|---7--10---------------|
A------------------------------------------|-----------------------|
E------------------------------------------|-----------------------|

      F               G  Am                   Em    
'ohhhh! y se ganan la vida hurgando entre la basura;
      F          G                  Am 
tan llenos de rabia como llenos de duda,
F          G           C
los hijos de la oscuridad.'

===================================================
Colaboracion de Jose Abel Lopez



Acordes para guitarra
x

Todo acerca de Franco De Vita