Acordes para guitarra

Indice Extremoduro

guitartabs

===================================================
| Extremoduro                                     |
| STANDBY CORRECCION                              |
| Extremoduro                                     |
| Yo, Minoria absoluta ()                         |
============================================TAB====



Guitarra I (Acustico)
e|--------------------------|----------------------------|------------||
B|--------------------------|----------------------------|------------||
G|-----0--------------------|-------------0--------------|-----------會|
D|---0---0------0-----------|----------(2)---------------|-----------會|
A|-2-------0--3-------------|---0-2---3------3-3/5-5-5/7-|-------7-5--||
E|----------------3---------|-3--------------------------|------------||


e|--------------------------|----------------------------|------------||
B|--------------------------|----------------------------|------------||
G|-----0--------------------|-------------0--------------|-----------會|
D|---0---0------0-----------|----------(2)---------------|-----------會|
A|-2-------0--3-------------|---0-2---3------3-3/5-5-5/7-|-------7-5--||
E|----------------3---------|-3--------------------------|------------||
 |
 | Guitarra II (Acustico)
e|-----3------5-------7-----|-----------10-8-------------|-3-5-6-7-8--|
B|--------------3-------8---|----------------------------|------------|
G|-3/4--4-4/5-----5/7----(4)|----------9-----9-9/11/9-7--|-4-5-6-7-8--|
D|--------------------------|---------------------------9|------------|
A|--------------------------|----------------------------|------------|
E|--------------------------|----------------------------|------------|


e|------------------------------------|----------------------------|------------||
B|------------------------------------|----------------------------|------------||
G|-------0----------------------------|-------------0--------------|-----------會|
D|----0-----0---------0---------------|----------(2)---------------|-----------會|
A|-2-----------0---3------------------|---0-2---3------3-3/5-5-5/7-|-------7-5--||
E|-----------------------3------------|-3--------------------------|------------||
 |
 |     F        F                         1/2
e|-------15----------14------------12-|-14brbr----3----3-----------|-----3-2-3--|  (2* Se corresponde con 
B|---------15----------15--------12---|---------5----3----1---0----|-3-3--------|  la entrada de la
G|-14-14b(16)-(16)r14-----(14)r12-----|---------5----4----2---0----|------------|  guitarra I en el Verso
D|------------------------------------|--------(5)--(5)--(2)-(0)---|------------|  I que se describe a 
A|------------------------------------|----------------------------|--------(2*)|  continuaci鏮)
E|------------------------------------|----------------------------|------------|

[Verso I]
Guitarra I (Acustico)
e|--------------------------|----------------------------|------------||
B|--------------------------|----------------------------|------------||
G|-----0--------------------|-------------0--------------|-----------會|
D|---0---0------0-----------|----------(2)---------------|-----------會|
A|-2-------0--3-------------|---0-2---3------3-3/5-5-5/7-|-------7-5--||
E|----------------3---------|-3--------------------------|------------||
   Viene mirando una estrella              siempre en estado de espera.
   Bebe a la noche ... ginebra             para encontrase con ella.

e|-----------------------------------------------------------||
B|-----------------------------------------------------------||
G|----------------------------------------------------------會|
D|----------------------------------------------------------會|
A|--2/3--3--3--3--3/5--5--5--5--5/7--7--7--7--5--5--5--5--5--||
E|-----------------------------------------------------------||
    Sue鎙 con su calabera,           viene un perro y se la lleva,
    y aleja la pesadilla             dejando en un agujero,

e|-----------------------------------------------------------------|
B|-----------------------------------------------------------------|
G|--------------------------------------------------------------5--|
D|--------------------------------------------------------------5--|
A|--2/3--3--3--3--3/5--5--5--5--5/7--7--7--7--5--5--5--5-5--2/3-3--|
E|-----------------------------------------------------------------|
 |
 | Guitarra II (Acustico)
e|-------12------------14------------15------------17--------------|
B|-----------------------------------------------------------------|
G|-11/12---------12/14---------14/16---------16/17----------8/9----|
D|-----------------------------------------------------------------|
A|-----------------------------------------------------------------|
E|-----------------------------------------------------------------|
    unas flores amarillas            p'acordarse de su pelo.
 
[ESTRIBILLO I]							__________________________
Guitarra III y IV (El嶰tricas)					|1.           |2.
   G       D     G                 C       D     Em        |             |   Em D             
e|-3-3-3-3-2-2-2-3-3-3-3-3-3-2-0---0-0-0-0-3-3-3-3-3-3-3-3-|-3-2-0---5-3-|----------|
B|-3-3-3-3-3-3-3-3-3-3-3-3-3-3-3-3-1-1-1-1-2-2-2-5-5-5-5-5-|-------3-----|----------|
G|-0-0-0-0-2-2-2-0-0-0-0-0-------0-0-0-0-0-3-3-3-4-4-4-4-4-|-------------|---9--7---|
D|---------------------------------------------------------|-------------|---9--7---|
A|---------------------------------------------------------|-------------|---7--5---|
E|---------------------------------------------------------|-------------|----------|
    Sue鎙 que sue鎙 con ella            y si en el infierno espera
    quiero fundirme en tu fuego         como si fuese de cera.

                         _____________________________________________________________________________
                         |1.                |2.                      |3.
e|-----------------------|------------------|------------------------|-------------------------------|
B|------10p8-------12p10-|-------13p12--10--|-------13-12h13p12--15--|-------13-12h13p12--10-8-------|
G|----9---------11-------|----12------------|----12------------------|----12-------------------------|
D|-10--------12----------|-14---------------|-14---------------------|-14----------------------------|
A|-----------------------|------------------|------------------------|-------------------------------|
E|-----------------------|------------------|------------------------|-------------------------------|
|PM|...|    |.....|       |.....|            |.....|                  |.....|
|                        |                  |                        |                       C
e|-------5p3--------7p5--|--------8p7----5--|--------8---7h8p7---10--|--------8---7h8p7---5--3-3-3-3-|
B|----5----------7-------|-----8------------|-----8------------------|-----8-------------------------|
G|--5---------7----------|--9---------------|--9---------------------|--9--------------------5-5-5-5-|
D|-----------------------|------------------|------------------------|-----------------------5-5-5-5-|
A|-----------------------|------------------|------------------------|-----------------------3-3-3-3-|
E|-----------------------|------------------|------------------------|-------------------------------|
PM |...|     |....|        |....|             |....|                   |....|


     F                            |Guitarra I (Acustico)
e|---------15---------------------||--------------------------|----------------------------|---------||
B|-12-----------------------------||--------------------------|----------------------------|---------||
G|-14b(16)--r(15)b(16)r14p12------||-----0--------------------|-------------0--------------|--------會|
D|--------------------------14-12-||---0---0------0-----------|----------(2)---------------|--------會|
A|--------------------------------||-2-------0--3-------------|---0-2---3------3-3/5-5-5/7-|----7-5--||
E|--------------------------------||----------------3---------|-3--------------------------|---------||

[VERSO II]
e|-------------------------|-------------------------------|-------------|
B|-------------------------|-------------------------------|-------------|
G|-----0-------------------|-----------------0-------------|-------------|
D|---0---0-----0-----------|--------------(2)--------------|-------------|
A|-2-------0-3-------------|---0-2-------3-----3-3/5-5-5/7-|---------7-5-|
E|---------------3---------|-3-----------------------------|-------------|
 |
 | Guitarra II (Acustico)
e|-3-----3-2-----3-3-3-----|---------3p2-0-----0-2-----2-3-|---------7-5-|
B|---3-------3---------3---|-------3-------1-------3-------|-------3-----|
G|-----0-------2---------0-|-2-2/4-----------0-------2-----|-2-2/4---7-5-|
D|-------------------------|-------------------------------|-------------|
A|-------------------------|-------------------------------|-------------|
E|-------------------------|-------------------------------|-------------|
      Y antes de hacer las maletas              y pasar la vida entre andenes


e|-------------------------|-------------------------------|---------------|
B|-------------------------|-------------------------------|---------------|
G|-----0-------------------|-----------------0-------------|---------------|
D|---0---0-----0-----------|--------------(2)--------------|---------------|
A|-2-------0-3-------------|---0-2-------3-----3-3/5-5-5/7-|---------7-5---|
E|---------------3---------|-3-----------------------------|---------------|
 |
 |
e|-3-----3-2-----3-3-3-----|---------3p2-0-----0-2-----2-3-|---------------|
B|---3-------3---------3---|-------3-------1-------3-------|-------3-------|
G|-0---0-------2---------0-|-2-2/4-----------0-------2-----|-2-2/4---4/2-0-|
D|-------------------------|-------------------------------|---------------|
A|-------------------------|-------------------------------|---------------|
E|-------------------------|-------------------------------|---------------|
      ...............................            para tener quien la espere




e|-----------------------------------------------------------||
B|-----------------------------------------------------------||
G|----------------------------------------------------------會|
D|----------------------------------------------------------會|
A|--2/3--3--3--3--3/5--5--5--5--5/7--7--7--7--5--5--5--5--5--||
E|-----------------------------------------------------------||
        Sue鎙 con su melena         y viene el viento y se la lleva
    y desde entonces su cabeza      solo quiere alzar el vuelo,


e|------------------------------------------------------------------------------|
B|------------------------------------------------------------------------------|
G|--------------------------------------------------------------5----------(5)--|
D|--------------------------------------------------------------5----------(5)--|
A|--2/3--3--3--3--3/5--5--5--5--5/7--7--7--7--5--5--5--5-5--2/3-3----------(3)--|
E|------------------------------------------------------------------------------|
 |
 | 
e|-------12------------14------------15------------17-----------8--10--8--7-5---|
B|------------------------------------------------------------------------------|
G|-11/12---------12/14---------14/16---------16/17----------8/9-----------------|
D|------------------------------------------------------------------------------|
A|------------------------------------------------------------------------------|
E|------------------------------------------------------------------------------|
      bebe rubia la cerveza          p'acordarse de su pelo


[ESTRIBILLO II]							__________________________
Guitarra III y IV (El嶰tricas)					|1.           |2.
   G       D     G                 C       D     Em        |             |   Em D             
e|-3-3-3-3-2-2-2-3-3-3-3-3-3-2-0---0-0-0-0-3-3-3-3-3-3-3-3-|-3-2-0---5-3-|----------|
B|-3-3-3-3-3-3-3-3-3-3-3-3-3-3-3-3-1-1-1-1-2-2-2-5-5-5-5-5-|-------3-----|----------|
G|-0-0-0-0-2-2-2-0-0-0-0-0-------0-0-0-0-0-3-3-3-4-4-4-4-4-|-------------|---9--7---|
D|---------------------------------------------------------|-------------|---9--7---|
A|---------------------------------------------------------|-------------|---7--5---|
E|---------------------------------------------------------|-------------|----------|
    Sue鎙 que sue鎙 la estrella         siempre en estado de espera
    vuelve a coger la botella           y pasa las noches en vela.

                      _________________________________________________________________________
                         |1.                      |2.                 |3.
e|-----------------------|------------------------|-------------------|------------------------------|
B|------10p8-------12p10-|-------13-12h13p12--10--|-------13p12---15--|-------13p12----10----8-------|
G|----9---------11-------|----12------------------|----12-------------|----12------------------------|
D|-10--------12----------|-14---------------------|-14----------------|-14---------------------------|
A|-----------------------|------------------------|-------------------|------------------------------|
E|-----------------------|------------------------|-------------------|------------------------------|
|PM|...|    |.....|       |.....|                  |.....|             |.....|
|                        |                        |                  |                       C
e|-------5p3--------7p5--|--------8--7h8p7-----5--|--------8p7----10-|--------8p7-------5----3-3-3-3-|
B|----5----------7-------|-----8------------------|-----8------------|-----8-------------------------|
G|--5---------7----------|--9---------------------|--9---------------|--9--------------------5-5-5-5-|
D|-----------------------|------------------------|------------------|-----------------------5-5-5-5-|
A|-----------------------|------------------------|------------------|-----------------------3-3-3-3-|
E|-----------------------|------------------------|------------------|-------------------------------|
PM |...|     |....|        |....|             |....|                   |....|

e|-----------------------------|
B|-12-------12------15--12-----|
G|-14b16----14b16-------14b16--|
D|-----------------------------|
A|-----------------------------|
E|-----------------------------|

[ESTRIBILLO III]
Guitarra III y IV (El嶰tricas)
   G       D     G                 C       D     Em        
e|-3-3-3-3-2-2-2-3-3-3-3-3-3-2-0---0-0-0-0-3-3-3-3-3-3-3-3-|-3-2-0---5-3-|
B|-3-3-3-3-3-3-3-3-3-3-3-3-3-3-3-3-1-1-1-1-2-2-2-5-5-5-5-5-|-------3-----|
G|-0-0-0-0-2-2-2-0-0-0-0-0-------0-0-0-0-0-3-3-3-4-4-4-4-4-|-------------|
D|---------------------------------------------------------|-------------|
A|---------------------------------------------------------|-------------|
E|---------------------------------------------------------|-------------|
 |
 | Guitarra V y VI (El嶰tricas)
e|---------------------------15p14h15-|-------14-15b(17)r15p14-12---------------------|
B|------------------------15-15p13h15-|----------15b(17)r15-15-13-15-15b(17)r15-13-12-|
G|------------------------12-------16-|---------------------------16-16b(17)r16-14-12-|
D|------------------------------------|-----------------------------------------------|
A|------------------------------------|-----------------------------------------------|
E|------------------------------------|-----------------------------------------------|
    Sue鎙 que sue鎙 con ella            y si en el infierno espera,
 
Guitarra III y IV continan como en los estribillos anteriores hasta el final del solo
   G           D          G ~~~~~~~~~~~~~~~~~~~           C      D       Em
e|------------------------10-----10-----10---10--------------------|---------------------|
B|------------------------12-----12-----12---12--------------------|------10h12h13-10h12-|
G|-----------------------(12)---(12)---(12)-(12)-9p7h9----11----12-|------11h12h14-11h12-|
D|-----------------------------------------------------------------|---------------------|
A|-----------------------------------------------------------------|---------------------|
E|-----------------------------------------------------------------|---------------------|
    quiero fundirme en tu fuego                            como si fuese de cera.


   G           D          D 
                          F          F       1/2     F                       
e|----------------15----17b(19)--(17)b19-------------------------|
B|-------------15----15--------------------18b(19)-18b(20)~~~~~--|
G|---------------------------------------------------------------|
D|---------------------------------------------------------------|
A|---------------------------------------------------------------|
E|---------------------------------------------------------------|
    Sue鎙 que sue鎙 la estrella ...


    C         D       Em
e|-----------------------------------------------|-------------------------|
B|-18p15-18p15----15-----------------------------|-------------------------|
G|-------------17----17p15-17p15----15-----------|----14-16-17-19-19b(21)--|
D|-------------------------------17----17p15h17--|-17----------------------|
A|-----------------------------------------------|-------------------------|
E|-----------------------------------------------|-------------------------|
   siempre en estado de espera


solo                 F
e|--------------15-17b(19)----19p17----------19p17----------19p17----------19p17---------|
B|-----------15--------------------20p18h20-------20p18h20-------20p18h20-------20p18h20-|
G|-19--17p16-----------------------------------------------------------------------------|
D|---------------------------------------------------------------------------------------|
A|---------------------------------------------------------------------------------------|
E|---------------------------------------------------------------------------------------|
    vuelve a coger la botella                                      y pasas las noches en vela.


	    F            final del solo
e|-17-19-19b(20)r19p17--------------------|  *** En este punto comienza la parte final a dos
B|---------------------20p19p17-----------|     guitarras que he puesto a continuaci鏮 
G|------------------------------19p17\\---|
D|-----------------------------------***--|
A|----------------------------------------|
E|----------------------------------------|


                         ______________________________________________________________________________
2 guitarras              |1.                      |2.                 |3.
e|-----------------------|-------12-10h12p10---8--|-------12p10---15--|-------12-10h12p10----8---7----|
B|------10p8-------12p10-|-------13-12h13p12--10--|-------13p12---15--|-------13-12h13p12---10---8----|
G|----9---------11-------|----12------------------|----12-------------|----12-------------------------|
D|-10--------12----------|-14---------------------|-14----------------|-14----------------------------|
A|-----------------------|------------------------|-------------------|-------------------------------|
E|-----------------------|------------------------|-------------------|-------------------------------|
|PM|...|    |.....|       |.....|                  |.....|             |.....|
Siempre en estado de espera        siempre en estado de espera              siempre en estado de espera ...



Final:
(Guitarra I, acustico)

               G
e|-------------3----| 
B|-0--3--0-----3----|
G|----------2--0----|
D|-------------0----|
A|-------------2----|
E|-------------3----|


Transcrito por Pablo L鏕ez
Y ya de paso, el que sepa la letra en la parte de los .................. que me la mande.
Ala, a dejarse los dedos.

===================================================
Colaboracion de Pablo L鏕ez



Acordes para guitarra
x

Todo acerca de Extremoduro