Acordes para guitarra

Indice Extremoduro

guitartabs

===================================================
* Extremoduro                                     *
* CABEZABAJO                                      *
* ---???---                                       *
* ---???--- ()                                    *
============================================TAB====

+ Tabulados de made in spain!                   +
+++++++++++++++++++++++++++++++++++++++++++++++++

  PARTE A
e |--------0-----------3-----------0-----------3----------|
B |------1---1-------1---1-------1---1-------1---1--------|
G |----4-------4---4-------4---4-------4---4-------4--4---|
D |--2-----------2-----------2-----------2------------2---|
A |-------------------------------------------------------|
E |-------------------------------------------------------|

                                         
  PARTE B  
e |------------------------------|
B |------------------------------|
G |------------------------------|
D |--2--5-5-2--8-8-2--8-8-5-(5)--|
A |--2--5-5-2--8-8-2--8-8-5-(5)--|
E |--0--3-3-0--6-6-0--6-6-3-(3)--| 

  PARTE C
e |------------------------------------------------------------|
B |------------------------------------------------------------|
G |------------------------------------------------------------|
D |-----------------------------------------6------6------5-3--|
A |--2--2-2--2-2--2-2--2-2--2-2--2-2--2-2-2-6------6------5-3--|
E |--0--0-0--0-0--0-0--0-0--0-0--0-0--0-0-0-5--7-5-4--3-4-3-1--|

  PARTE D
e |------------------------------|
B |------------------------------|
G |------------------------------|
D |--2--5-5-2--8-8-2--8-8-5-3-2--|
A |--2--5-5-2--8-8-2--8-8-5-3-2--|
E |--0--3-3-0--6-6-0--6-6-3-1-0--|

  PARET E                PARTE F                PARTE G
e |------------|       e |---------------|    e |------------------------|
B |------------|       B |---------------|    B |-9--10-11--14-14-14-----|
G |------------|       G |---6-7-9-11-9--|    G |-9--10-11--14-14-14-14--|
D |---6-5-5\6--|       D |-9-------------|    D |-9--10-11--14-14-14-14--|    
A |---7-6-6\7--|       A |---------------|    A |-7--9--10--12-12-12-14--|          
E |-0----------|       E |---------------|    E |------------------------|

  PARTE H                       PARTE I                PARTE J
e |------------------|        e |-------------|      e |------------|
B |------------------|        B |-------------|      B |------------|
G |------------------|        G |-------------|      G |-9-9---8-7--| 
D |-----5-4-----4-5--|        D |-----3----4--|      D |-9-9---8-7--|
A |------------------|        A |---3-----4---|      A |-7-7---6-5--| 
E |-0-0-----0-0------|        E |-1-----2-----|      E |------------|

PARTE A
PARTE B CON PARTE A  x2
PARTE C
Necesito mas olas...
PARTE B CON PARTE A  x2
PARTE C
Necesito mas dudas.....
PARTE B CON PARTE A Y PARTE D CON PARTE A
PARTE E + PARTE F
PARTE G
Perdido entre montaņas...
PARTE H x4
Pierdo la razon .....
PARTE I x2
Estoy colgado en.....
PARTE J 
Y vamos a ver...
PARTE G
Que quieres que te diga .....
PARTE H  x4
Haber si es verdad....
PARTE QUE NO HE SACADO, QUE ES EL LA SUBIDA PUNTEADA.
Nada de nada

TODO LO DEMAS ES CON EL MISMO ESQUEMA QUE HASTA AHORA.


        HAY COSA QUE NO ME SUENA DEL TODO BIEN PERO TAMPOCO SUENA MAL
  DEL TODO Y SI ALGUIEN SACA LAS NOTAS QUE FALTAN QUE ME LO MANDE.

        SI TENEIS ALGUNA DUDA O OTRA FORMA DE TOCARLA O PREGUNTARME LO

===================================================
Colaboracion de Javi



Acordes para guitarra
x

Todo acerca de Extremoduro