Acordes para guitarra

Indice Dragonforce

guitartabs

   Dragonforce
     My Spirit Will Go On Intro tab by Dragonforce




My Spirit Will Go On Tab

   votes]

DragonForce - My Spirit Will Go On - Guitar Tab by Matt Stevenson.

This is much easier when finger picking
Played Clean
E--------------------------------------------------------------------------|
B--------------------------------------------------------------------------|
G--------------------------------------------------------------------------|
D--2-----2-----2-----4-----4-----4----5-----5-----5-----4-----4-----4------|
A----2-----2-----------2-----2----------2-----2-----------2-----2----------|
E------0-----0----0------0-----0----0-----0-----0----0------0-----0----0---|  X
2

E------------------------------------------------------------------------------
----|
B------------------------------------------------------------------------------
----|
G--4-----4-----4-----5------5-----5------4------4------4------2--------------0-
----|
D----2-----2-----------2------2------------2------2-------------2---5--2-------
----|
A------2-----2-----2-----2------2-----2------2------2------2------2-------2----
-2--|
E------------------------------------------------------------------------------
----| X2


Distortion
E-----------------------|
B-----------------------|
G-----------------------|
D--2-----4-----5----4---|
A--2-----2-----2----2---|
E--0-----0-----0----0---|

         X8        X8    X8       X8


E-----------------------------------------|
B-----------------------------------------|
G-----------------------------------------|
D--4----5----4----2---------2----4--------|
A--2----2----2----2----5----2----2--------|
E--2----2----2----2----2----2----2--------|
   X8    X8       X8   X3   X3   X2    Repeat (2nd time dont play the last chor
d)

E------------------------------------------------------------------------------
------|
B------------------------------------------------------------------------------
------|
G--4~~~4-4-5-7-9-9-11-12-14-16-/16-14-12-/16-12-14-16-14-12-14--12-14-16-14-12-
12----|
D--4~~~4-4-5-7-9---------------------------------------------------------------
------|
A------------------------------------------------------------------------------
------|
E------------------------------------------------------------------------------
------|


                               *              *  (pinch harmonic)
E------------------------------------------------------------------------------
---|
B-----------------------15-----------------------------------------------------
---|
G-----------11-12-14-16----16-14-16-12-14-16-14-12-14-12-14-16-14-12-12-12-----
---|
D--12-14-14----------------------------------------------------------------12-1
4--|
A------------------------------------------------------------------------------
---|
E------------------------------------------------------------------------------
---|



References

Acordes para guitarra
x

Todo acerca de Dragonforce