Acordes para guitarra

Indice Danny Rivera

guitartabs

===================================================
* Danny Rivera                                    *
* MADRIGAL                                        *
* ---???---                                       *
* ---???--- ()                                    *
============================================TAB====

espero puedan comprenderlo.
      ^=comparten la misa nota
no se que tan bien esté, pero a mi me gusto. que la disfruten
			       
		

    Es tan do con ti go me^ol vi do de to do^y de mí, 
E-|----------------------------------------------------
B-|--------1------1-------1------1-----1-------1-------
G-|-----3------3-----3--------3-----3-------3-----3----
D-|-0--------------------------------------------------
A-|----------------------------------------------------
E-|----------------------------------------------------

    pa re ce que to do lo ten go te nién do te^a tí
E-|----------------------------------------------------
B-|----4--1---4--1--4--1---4--1--4---1---4----1--3-----
G-|-0--------------------------------------------------
D-|----------------------------------------------------
A-|----------------------------------------------------
E-|----------------------------------------------------

    y no sien to^es te mal que me^a go bia^y que lle vo con mi go
E-|-------1-----3---1---3---1----3--1-----3---1---3--1------1--4--
B-|-3-4--------------------------------------------------3--------
G-|---------------------------------------------------------------
D-|---------------------------------------------------------------
A-|---------------------------------------------------------------
E-|---------------------------------------------------------------

    ar rui nan do^es ta vi da que ten go^y no pue do vi vir,
E-|--------------1------1------1--------1------1---------------
B-|---------4--------4-----4-------4-------4------4--1---3-----
G-|-0---0------------------------------------------------------
D-|------------------------------------------------------------
A-|------------------------------------------------------------
E-|------------------------------------------------------------

    E res luz que^i lu mi na la no ches en mi lar go ca mi no
E-|-----------------------------------------------------------
B-|-0--1---3-----4--3--4--3--4--3---4---3--3---4--3--0--3--1--
G-|-----------------------------------------------------------
D-|-----------------------------------------------------------
A-|-----------------------------------------------------------
E-|-----------------------------------------------------------

    y^es por e so que fren te^al des ti no no quie ro vi vir.
E-|-----------------------------------------------------------
B-|-------1--3-3---3---3----------3--3---------3---3--1---0---
G-|--3-----------------------2----------2--2------------------
D-|-----------------------------------------------------------
A-|-----------------------------------------------------------
E-|-----------------------------------------------------------

    U na ro sa^en tu pe lo pa re ce^una^es tre lla^en el cie lo
E-|---------------------------0----0---0----2-----0-------0-----
B-|---0--3----3---3--3--2--3--------------------------3------3--
G-|-0-----------------------------------------------------------
D-|-------------------------------------------------------------
A-|-------------------------------------------------------------
E-|-------------------------------------------------------------

    y^en el vien to pa re ce^un a cen to tu voz mu si cal
E-|-------------------------------------------------------
B-|------0---3---3--3--3----1---0--3--3--0---3--1--0---1--
G-|--0----------------------------------------------------
D-|-------------------------------------------------------
A-|-------------------------------------------------------
E-|-------------------------------------------------------

    y pa re ce^un des te llo de luz la me da lla^en tu cue llo
E-|------0----0----0--0----------0--------0-------------0-------
B-|-1-3-------------------3--1------1--3--------3---1-----------
G-|-------------------------------------------------------------
D-|---------------------------------------------------------0---
A-|-------------------------------------------------------------
E-|-------------------------------------------------------------

    al me nor mo vi mien to de tu cuer po^al an dar.
E-|---------------------------------------------------
B-|-1--1---1--0--1---0--------------------------------
G-|----------------------2--2--2---2-----0---2---0----
D-|---------------------------------------------------
A-|---------------------------------------------------
E-|---------------------------------------------------

    Yo^a tu la do no sien to las ho ras que van con el tiem po
E-|------------------------------0---0---0--------------0-------
B-|------0--3--3--3---3---2---3------------------0--3-------3---
G-|---0---------------------------------------------------------
D-|-------------------------------------------------------------
A-|-------------------------------------------------------------
E-|-------------------------------------------------------------

    ni me^a cuer do que lle vo^en mi pe cho^u na^he ri da mor tal.
E-|------0---1---0-------1----0------1-----0--------1--0-------0--
B-|-3----------------3------------3-------------3----------3------
G-|---------------------------------------------------------------
D-|---------------------------------------------------------------
A-|---------------------------------------------------------------
E-|---------------------------------------------------------------

    Yo con ti go no sien to^el so nar de la llu via y^el vien to
E-|-------------------------------------------------------3-------
B-|-1---3--4--3--1---3-----3---1---4--3--1---4---3---1--------3---
G-|---------------------------------------------------------------
D-|---------------------------------------------------------------
A-|---------------------------------------------------------------
E-|---------------------------------------------------------------

     por que lle vo tu^a mor en mi pe cho co mo^un ma dri gal.
E-|-------0------------------------------------------------------
B-|---0-------0--0----0---0--------------------------------------
G-|--------------------------2--0--2---2--2----2---0--------0----
D-|----------------------------------------------------4---------
A-|--------------------------------------------------------------
E-|--------------------------------------------------------------

...y otra vez

    Yo^a tu la do no sien to las ho ras que van con el tiem po
E-|------------------------------0---0---0--------------0-------
B-|------0--3--3--3---3---2---3------------------0--3-------3---
G-|---0---------------------------------------------------------
D-|-------------------------------------------------------------
A-|-------------------------------------------------------------
E-|-------------------------------------------------------------

    ni me^a cuer do que lle vo^en mi pe cho^u na^he ri da mor tal.
E-|------0---1---0-------1----0------1-----0--------1--0-------0--
B-|-3----------------3------------3-------------3----------3------
G-|---------------------------------------------------------------
D-|---------------------------------------------------------------
A-|---------------------------------------------------------------
E-|---------------------------------------------------------------

    Yo con ti go no sien to^el so nar de la llu via y^el vien to
E-|-------------------------------------------------------3-------
B-|-1---3--4--3--1---3-----3---1---4--3--1---4---3---1--------3---
G-|---------------------------------------------------------------
D-|---------------------------------------------------------------
A-|---------------------------------------------------------------
E-|---------------------------------------------------------------

     por que lle vo tu^a mor en mi pe cho co mo^un ma dri gal.
E-|-------0------------------------------------------------------
B-|---0-------0--0----0---0--------------------------------------
G-|--------------------------2--0--2---2--2----2---0--------0----
D-|----------------------------------------------------4---------
A-|--------------------------------------------------------------
E-|--------------------------------------------------------------

===================================================
Colaboracion de Juan Felipe Ceballos A.



Acordes para guitarra
x

Todo acerca de Danny Rivera