Acordes para guitarra

Indice Cultura Profetica

guitartabs

===================================================
| Cultura Profetica                               |
| BIEKE                                           |
| Bob Marley , adaptacion  espa~ol Cultura Profetica|
| ---???--- ()                                    |
============================================BAS====

Esta cancion es muy facil de tocar el coro es igual
que el intro





Intro

G|--------------------------|
D|----------6----------8----|x2
A|---4-4-4-4-4--6-6-6-6-6---|
E|------------5----------6--|


Verso

G|-----------------------------------------------|
D|-----------------------------------------------|
A|---3-3-4-3-1--1-1-3-1----------4-4-4--4-4-4-3--|
E|---------------------1--1-1-4-1----------------|


Coro

G|--------------------------|
D|----------6----------8----|
A|---4-4-4-4-4--6-6-6-6-6---|
E|------------5----------6--|


Para cualquier duda me pueden enviar un email.
Y un saludo al corillo de valle y a la banda Sin Conciencia
(Bertito , Gerald , Alex , Roberto C.)

===================================================
Colaboracion de Gerald E. Colon



Acordes para guitarra
x

Todo acerca de Cultura Profetica