Acordes para guitarra

Indice Crow Sheryl

guitartabs

   Sheryl
     Hard To Make A Stand bass tab by Crow Sheryl




Hard To Make A Stand Bass Tab


Bass tab:
Song: Hard to make a stand
Musician: Sheryl Crow
Album: Sheryl Crow

Alrighty, you need to Tune your E string one step down to D.
I'll only write the A and E (now D) strings because they're the only
ones used.

h = Hammer on
\ = Slide down


Ok,
INTRO:
A-15-15-----15-15-15--15-----15\
D-------------------17-----------


Verse / Chorus:
A--3-3----0----------0-3-3
D-----------3-3--5-5------

Bridge:
"and he says caaaaaall me a miscreation, i'm a walking celebraaaaation
A-----------3---3---3--2-2-2-0--0--0--0----------------------------
D---------------------------------------3--3---2-2----0--0--5-5-5-5

Interlude:
".....yes it is"
A--------------0___-0-0-0------------5-5-5-5--7-7-7-10-10-10-10\
D------------------------5-3___-3-3-3---------------------------

"We got loud guitars and......."
A-3-3-3-3-3-3-3h5-5-----10\
D-------------------------

Then when Bass starts up again just play the verse/chorus riff over and
over.

Alright I hope you have fun with this, it's a very unconstrained song
to play. Any queries or anything e-mail me at

Ok, bye.



References

Acordes para guitarra
x

Todo acerca de Crow Sheryl