Acordes para guitarra

Indice Creeper Lagoon

guitartabs





This my first tab, so don't be to draconic ;)

Solo

E|-7s5---------------------------------------------------|
B|----------------------7-----787------------------------|
G|-----7-------7----9-9---7------9--7--------------------|
D|---------7h9--------------------79-----7h9---9s7-------|
A|-------------------------------------------------------|
E|------------------------------------------10-----------|

E|-------------------------------------------------------|
B|-------------------------------------------------------|
G|-------------------------------------------------------|
D|-------------------------------------------------------|
A|-10----9-----7-----------------------------------------|
E|----10---10--------------------------------------------|

Ending

E|-------------------------------------------------------|
B|-------7--7878-10-12b13-10-7-787-------10---10---------|
G|---7979-------------------------97--7h9--7h9---7-------|
D|-79----------------------------------------------9-----|
A|-------------------------------------------------------|
E|-------------------------------------------------------|

E|-------------------------------------------------------|
B|-------------------------------------------------------|
G|-9-----------------------------------------------------|
D|---7---797--7-5----------------------------------------|
A|----------10-------------------------------------------|
E|-------------------------------------------------------|


This is some additional stuff the solo guitar plays.
Most of the stuff played after the first solo are parts of it or variations.

E|---------------------|--------------------------------|
B|-----7-8-10--7---7---|----7---------------------------|
G|-7-------------9-----|-99---9-6-7---------------------|
D|-------------------9-|--------------------------------|
A|---------------------|--------------------------------|
E|---------------------|--------------------------------|
  (first verse lead)     (little fill after second time)

Acordes para guitarra
x

Todo acerca de Creeper Lagoon