Acordes para guitarra

Indice Creedence Clearwater Revival

guitartabs





#----------------------------------PLEASE NOTE-------------------------------
#This file is the author's own work and represents their interpretation of the song. You 
only use this file for private study, scholarship, or research.
#----------------------------------------------------------------------------
#-- File created with Instab - http://www.pconline.com/~smcarey/instab.html
#----------------------------------------------------------------------------

Author/Artist: Creedence Clearwater Revival
Title: Run Through The Jungle
Transcribed by: Matt

Drop D tuning
e
B
G
D
A
D

Intro:
----------|--------------|-----------|---1---------|----------|--------------|
----1---3-|--------------|-----1---3-|-3-1-3---1-3-|----1---3-|--------------|
------2---|-1-0----------|-------2---|-2---2-2-----|------2---|-1-0----------|
----------|-----3-0----0-|-----------|-------------|----------|-----3-0------|
----------|--------0-3---|-----------|-------------|----------|---------0-3--|
-0--------|--------------|-0---------|-------------|-0--------|--------------|


---|----------|-1----------------|----------|---------------|---------------|
---|----1-3-3-|-1--3--3-----1--3-|----1---3-|---------------|---1---3-------|
---|----2-2-2-|-2--2--2--2-------|------2---|-1-0-----------|-----2---------|
-0-|-0--------|------------------|----------|-----3-0-----0-|---------------|
---|----------|------------------|----------|---------0-3---|---------------|
---|----------|------------------|-0--------|---------------|-0-------------|

		    Verse 1&2:
---------------|----1-------|-------------|----1--------|--------------------|
---------------|----2--3----|-1-3-3-------|-------3---3-|-1------------------|
-1-0-----------|-------2--2-|-------------|----2----2---|-----2--1--0--------|
-----3-0-----0-|------------|-------------|-------------|--------------3--0--|
---------0-3---|------------|-------------|-------------|--------------------|
---------------|-0----------|--------0-3b-|-0-----------|--------------------|


---------|-----------|-----------|-------------|-----------|-----------------|
-1--3----|-1-3-3---3-|-----------|-------------|-------1---|-----------------|
-2-----2-|-------2---|-2-1-0-----|-------------|----2----2-|-1-0-------------|
---------|-----------|-------3-0-|-----0--0-3b-|----0------|-----3-0-----0---|
---------|-----------|-----------|-0-3---------|-----------|---------0-3-----|
---------|-----------|-----------|-------------|-0---------|-----------------|


------------|-------------|-----------|---------------|---1------------------|
----1--1----|-------------|-------1---|---------------|------3-3---1-3-2-----|
----2-----2-|-1-0---------|----2----2-|-1-0-----------|---2--2---2-----------|
------------|-----3-0-----|----0------|-----3-0-----0-|----------------------|
------------|-------------|-----------|---------0-3---|----------------------|
Acordes para guitarra
x

Todo acerca de Creedence Clearwater Revival