Acordes para guitarra

Indice Coquillos

guitartabs

=====================================================================
| ARTISTA: Los Coquillos                                            |
| CANCION: Borracho hasta el amanecer                               |
| AUTOR:   Los Coquillos (?)                                        |
| ALBUM:   -?-                                                      |
+------------------------------------------------------TAB-coqu0013-+
| TRANS:   Jhon Alexander Latorre                                   |
=====================================================================

Hola amigos de atame, soy de cali/colombia y a qui le mando la tablatura
de esta cancion que esta sonando mucho.


Intro.

e---------------------------
b---------------------------
g---------------------------
d--8--8-8-8--8-8-7-5-0------
a---------------------------
e---------------------------

e-----------------------------------------------
b-----------------------------------------------
g-----------------------------------------------
d-----------------------------------------------
a--2-5-7-10-7-10-7v---7-10-7v---7-10-11-10-8-7--
e-----------------------------------------------.x2


Toda la cancion se toca con (Sib) Si Bemol, solamente se rasguea
las primeras tres cuerdas de abajo hacia arriba pausando el tono.

            I Estrofa

Adivina muņeca quien viene esta noche,
apropiarse con derroche de la barra de este bar.

e------------------
b--3-3/4-3-2-------
g------------------
d------------------
a------------------
e-----------7/4/5--


Todavia no perdi el sentido comun, no nesecito de froid
ni mi familia yo a la yo.

e------------------
b--3-3/4-3-2-------
g------------------
d------------------
a------------------
e-----------7/4/5--

Solo quiero concentrarme en este lugar, mucho tiempo,
mucho tiempo hasta el amanecer.

Coro.
Borracho...


               II Estrofa

De la misma forma que se nace para morir...


Coro.
Borracho...

***Solo

e----------------------------------------------
b--3-3-3-4-3-4-6-4-3-4----3-3-3-4-3-4-6-8-9----
g----------------------------------------------
d----------------------------------------------
a----------------------------------------------
e----------------------------------------------

e----------------------------------------------------------
b--3-3-3-4-3-4-6-4-4-4-3-3-3-4-4----3-3-3-4-3-4-6-8-9-9-9--
g----------------------------------------------------------
d----------------------------------------------------------.

              III Estrofa

Sigo el metodo...


Coro.
Borrcho...


***2do Solo

e---------------------------------------
b--4-3-----4-3-----4-3-------4-4/6------
g------5-3-----5-3-----5-3-5------------
d---------------------------------------
a---------------------------------------
e---------------------------------------.x2

Coro.
Borracho...

***Final

e------------------------------
b--8--8-8-8--8-8-8--8-7-5------
g------------------------------
d------------------------------
a------------------------------
e------------------------------.


1098875045

Acordes para guitarra
x

Todo acerca de Coquillos