Acordes para guitarra

Indice Conrad

guitartabs





Conrad: "T.O.O.L."


(bar chord)

Lick 1:(Main beat chorus)
e:-3-*-3-*-3---3--3----3-*-3-*-3---1--1-----
b:-3-*-3-*-3---3--3----3-*-3-*-3---1--1-----
g:-4-*-4-*-4---5--5----4-*-4-*-4---4--4-----
d:-5-*-5-*-5---5--5----5-*-5-*-5---3--3----
a:-5-*-5-*-5---3--3----5-*-5-*-5---3--3-----
E:-3-*-3-*-3---3--3----3-*-3-*-3---1--1-----

T'  O'  O'   L'     T'  O'  O'   L'

Lick 2
e:-3-*-3-*-3---3---3-------------------------------
b:-3-*-3-*-3---3------3-----3------3----------------
g:-4-*-4-*-4---5---------5-----5--------------------
d:-5-*-5-*-5---5----------------------------------
a:-5-*-5-*-5---3-----------------------------------
E:-3-*-3-*-3---3-----------------------------------e:-3-*-3-*-3---1---1-----------------------
b:-3-*-3-*-3---1------1-----1-----1-----
g:-4-*-4-*-4---2---------2-----2----------
d:-5-*-5-*-5---3-----------------------------
a:-5-*-5-*-5---3---------------------------------
Acordes para guitarra
x

Todo acerca de Conrad