Acordes para guitarra

Indice Clutch

guitartabs





#----------------------------------PLEASE NOTE---------------------------------#
#This file is the author's own work and represents their interpretation of the #
#song. You may only use this file for private study, scholarship, or research. #
#------------------------------------------------------------------------------#
#
Date: 16 Jan 96 16:40:08 -0500
Subject: "Big News 2" by Clutch

Big News 2              by Clutch
                        from the album "Clutch"
                        words and music by Tim Sult, Dan Maines,
                                Neil Fallon and Jean-Paul Gaster
                        tabbed by Tom Mallon

Intro                      Intro turnaround
E |------------------------|------------------------------------|
B |------------------------|------------------------------------|
G |.------------8---------.|------------------------------------|
D |.-8--9--10---8----1010-.|------------------------------------|
A |--8--9--10---6----1010--|--1---3-----------------------------|
E |--6--7--8---------8-8---|----------0--1---/6--7--8-----------|

   Verse Part 1           Verse Part 2            Verse Part 3
E |----------------------|-----------------------|--------------------------|
B |----------------------|-----------------------|--------------------------|
G |----------------------|---------6------6h8-8--|----------8-------8h10-10-|
D |----------------------|--6h7h8------8---------|--8h9h10------10----------|
A |--------6------6h8-8--|-----------------------|--------------------------|
E |-6h7h8------8---------|-----------------------|--------------------------|

Chorus Turnaround (Chorus is same as Intro but uses this turnaround)
E ----------------------------------------------------------|
B ----------------------------------------------------------|
G ----------------------------------------------------------|
D ----------------------------------------------------------|
A ----------------------------------------------------------|
E --8-7-6-----8-7-6-----------------------------------------|

Outro is same as Intro, use Intro Turnaround
--
 | Fidonet:  Burning Inside 1:273/929
 |  Standard disclaimer: The views of this user are strictly his own.
Acordes para guitarra
x

Todo acerca de Clutch