Acordes para guitarra

Indice Clutch

guitartabs





Artist: CLUTCH
Album: Robot Hive/Exodus
Tabbed by: shen poh

I got this album the other day and thought it was amazing so was bored the other night
and decided to TAB my first song. MAy not be completely correct but that's how it sounds to me. 

Drop D tuning
p = pull off
/ = Slide up
\ = Slide down
b = bend note (the bends vary from 1/4 to 1/2's nut I son't know how to TAB it)
there is also a lot of vibrato used on some of the notes but once again I don't
know how to TAB, it so keep your ears open for it.

Riff 1a:

E ||---------------------------------------|
B ||---------------------------------------|
G ||---------------------------------------|
D ||---------------------------------------| x 8
A ||--0-0-0-0-3b-0----0-3b-0-0----0-0------|
D ||---------------5b----------5b-----5-7--|

Riff 1b:

E ||--------|
B ||--------|
G ||--------|
D ||--5--7--| x 4
A ||--5--7--|
D ||--5--7--|

Riff 2:

E ||-----------------------------|
B ||-----------------------------|
G ||-----------------------------|
D ||--5p3p0-------------0-3-0-0--| x 3
A ||--------5p3p0-------0-3-0-0--|
D ||--------------5p3p0-0-3-0-0--|

Riff 2(end):

E ||-------------------------------|
B ||-------------------------------|
G ||-------------------------------|
D ||--5p3p0-------------0-3-0-0-/5-| 
A ||--------5p3p0-------0-3-0-0-/5-|
D ||--------------5p3p0-0-3-0-0-/5-|

Riff 3:

E ||--------------|
B ||--3-3-6----8--|
G ||--2-2-5----7--|
D ||--0-0-3-0-/5--| 
A ||--0-0-3-0-/5--|
D ||--0-0-3-0-/5--|

Riff 1 ALTERED:

E ||----------------------------------------|
B ||----------------------------------------|
G ||----------5b---------5b-----------------|
D ||---------------5b-----------5b----5b----| x 6
A ||--0-0-0-0----0-----0----0-0---0-0----0--|
D ||----------------------------------------|

"Riff 1b" (4 times)
 
"Riff 2"  (7 times)

"Riff 2(end)" (1 time)

"Riff 3" (4 times)


Riff 4 (2 Guitars):

Guitar 1:
E ||-----------------------|     |-----------------------| |-------------------|     |-----| |------|
B ||-----------------------|     |-----------------------| |-------------------|     |-----| |------|
G ||-----------------------|     |-----------------------| |-------------------|     |-----| |------|
D ||-----------------------| x 3 |-----------------------| |-------------------| x 4 |--7--| |--7\--|
A ||--0-0-0-3-0-0-0-3-0----|     |--0-0-0-3-0-0-0-3-0----| |-------------------|     |--7--| |--7\--|
D ||--------------------5--|     |--------------------6--| |--5-5-5-8-5-5-5-8--|     |--7--| |--7\--|

Guitar 2:
E ||-----------------------| |-----------------------| |-----------------------| |-----------------------|
B ||-----------------------| |--------------------8--| |-----------------------| |-----------------------|
G ||--------5-------5------| |--------5-------5------| |--------5-------5------| |--------5-------5------|
D ||--7-7-7---7-7-7---7-5--| |--7-7-7---7-7-7---7----| |--7-7-7---7-7-7---7-5--| |--7-7-7---7-7-7---7-6--|
A ||-----------------------| |-----------------------| |-----------------------| |-----------------------|
D ||-----------------------| |-----------------------| |-----------------------| |-----------------------|

E ||-------------------------| |------------------10---|                   |-----| |------|
B ||------------------3 -----| |------------------13b--|                   |-----| |------|
G ||--------3-------3-5b-----| |--------3-------3------|                   |-----| |------|
D ||--5-5-5---5-5-5----------| |--5-5-5---5-5-5--------| x 2 (Last 2 bars) |--7--| |--7\--|
A ||-------------------------| |-----------------------|                   |--7--| |--7\--|
D ||-------------------------| |-----------------------|                   |--7--| |--7\--|

"Riff 2"  (7 times)

"Riff 2(end)" (1 time)

"Riff 3" (16 times)

The Last 8 times (of final "riff 3") Second Guitar Plays

E ||---------------|     |---------|
B ||---------------|     |---------|
G ||--10----10/12--|     |---------|
D ||-----12--------| x 2 |--3---5--| x 2
A ||---------------|     |----5----|
D ||---------------|     |---------|

Acordes para guitarra
x

Todo acerca de Clutch