Acordes para guitarra

Indice Civilian

guitartabs





#----------------------------------PLEASE NOTE--------------------------------#
#This file is the author's own work and represents their interpretation of the#
#song. You may only use this file for private study, scholarship, or research.#
#-----------------------------------------------------------------------------#
#-- File created with Instab - http://www.pconline.com/~smcarey/instab.html --#
#-----------------------------------------------------------------------------#


Author/Artist: Civilian
Title: Demo #1 (Save Yourself)
Album: Rage Against The Machine - Chris Cornell Demos
Transcribed by: C Heaney
21:13 20/06/02

Normal Tuning


-|----------------------------------------------------------------------------|
-|----------------------------------------------------------------------------|
-|----------------------------------------------------------------------------|
-|----------------------------------------------------------------------------|
-|--5h7--5-----5------------5h7--5--------------------------------------------|
-|----------7-----7--5--0-----------7--5--0-----------------------------------|


		Repeat above 11 times then play:-

-|----------------------------------------------------------------------------|
-|----------------------------------------------------------------------------|
-|----------------------7--8--------------------------------------------------|
-|----------------------7--8--------------------------------------------------|
-|--5h7--5-----5--------5--6--------------------------------------------------|
-|----------7-----7--5--------------------------------------------------------|


		To Chorus:- "Go on and save yourself...."

-|-----------------------------------------------------------------------------|
-|-----------------------------------------------------------------------------|
-|---------------------2--4----------------------------------------------------|
-|------------------5--2--4----------------------------------------------------|
-|--7--7--5---------5--0--2----------------------------------------------------|
-|-----------7--0---3----------------------------------------------------------|


             	1st little solo bit:-

-|-----------------------------------------------------------------------------|
-|--b---------------b----------------b--r--b--r--b--r--b--r--b--r--b--r--------|
-|--2*************--2************--14-16-14-16-14-16-14-16-14-16-14-16-14------|
-|-----------------------------------------------------------------------------|
-|-----------------------------------------------------------------------------|
-|-----------------------------------------------------------------------------|


		Middle 8 bit:-

-|-----------------------------------------------------------------------------|
-|-----------------------------------------------------------------------------|
-|--4-----4-----4-----------------9-----9-----9-------------------9-----9--7---|
-|--4-----4-----4-----------------9-----9-----9-------------------9-----9--7---|
-|--2--2--2--2--2--(4 times)------7-----7-----7--(3 times)--------7-----7--5---|
-|-----------------------------------0-----0-------------------0---------------|


 		End bit same as chorus riff but end on:-

-|-----------------------------------------------------------------------------|
-|-----------------------------------------------------------------------------|
-|--9--9-----------------------------------------------------------------------|
-|--9--9-----------------------------------------------------------------------|
-|--7--7-----------------------------------------------------------------------|
Acordes para guitarra
x

Todo acerca de Civilian