Acordes para guitarra

Indice Cintron

guitartabs

===================================================
| Cintron                                         |
| ALGUIEN ME TOCA                                 |
| Samuel cintron                                  |
| ---???--- ()                                    |
============================================TAB====

Intro:
e|-----------------------|--------------|--------------------|
B|-----------5--7--8--7--|--8--7--------|--------------------|
G|--4--5--7--------------|--------7--4--|-----4--5--4-----4--|
D|-----------------------|--------------|--7-----------5-----|
A|-----------------------|--------------|--------------------|
E|-----------------------|--------------|--------------------|

e|--------|--------------||
B|--------|--------------||
G|--------|-----4--5--4--||
D|--7--5--|--7-----------||
A|--------|--------------||
E|--------|--------------||

Al mismo tiempo:  C – G – Em – Dsus – C


Intermedio:
e|-----------------------|--------------||
B|-----------5--7--8--7--|--8--7--------||
G|--4--5--7--------------|--------7--4--||
D|-----------------------|--------------||
A|-----------------------|--------------||
E|-----------------------|--------------||

Al mismo tiempo:  C - G

===================================================
Colaboracion de Eliel Chang



Acordes para guitarra
x

Todo acerca de Cintron