Acordes para guitarra

Indice Cinderella

guitartabs






  Cinderella-Gypsy Road (intro,verse)
                       
  Submitted by:Dillon Shifflett


Intro:
-------------------------------------------------|
-------------------------------------------------|
-------------------------------------------------|
--------------9--9--9------------------9--9------|
--------------9--9--9------------------9--9------|
---7h9p7---7--7--7--7---7---5---9---7--7--7------|

verse:
P.M................................
----------------------------------------|
----------------------------------------|  
----------------------------------------|  
---7-7-7-7-7-7-7-7-7-7-7-7-7-7-7-7------|  
---7-7-7-7-7-7-7-7-7-7-7-7-7-7-7-7------|
---5-5-5-5-5-5-5-5-5-5-5-5-5-5-5-5------|
 

You switch back and fourth between the
verse and Intro a few times.I'm not sure 
Acordes para guitarra
x

Todo acerca de Cinderella