Acordes para guitarra

Indice Chuvak Banda

guitartabs

===================================================
* Chuvak Banda                                    *
* ROKER                                           *
* ---???---                                       *
* ---???--- ()                                    *
============================================TAB====

  Intro:

  Se toca 4 veces   

  e------------------------------------
  b------------------------------------
  g--------5-5-5---4-4-4---------------
  d--4-4---5-5-5---4-4-4-7-7-7---4-----
  a--4-4/0-3-3-3/0-2-2-2-7-7-7---4-----
  e--2-2/0---------------5-5-5/0-2-----

  En esta parte se toca primero lo que va en g
  y luego lo que va en b, por problemas de 
  transcripción no esta especificado en la tab. 

  e-------------------------------------------------
  b-----------1/1/1/1-2/2/2/2-3/3/3/3-4/4/4/4/*12---
  g--2/2/2/2-3/3/3/3-4/4/4/4------------------------
  d-------------------------------------------------
  a-------------------------------------------------
  e-------------------------------------------------
  
  Esta parte va 4 veces
  
  e--------------------------------------
  b--------------------------------------
  g--4/4/4/4/4/4/4/4--7/7/7/7/7/7/7/7----      
  d--4/4/4/4/4/4/4/4--7/7/7/7/7/7/7/7----
  a--2/2/2/2/2/2/2/2--5/5/5/5/5/5/5/5----
  e--------------------------------------


  e--------------------------------------
  b--------------------------------------
  g-------------4-4----------------------
  d--4--4-7-7/7-4-4-7/7/7----------------
  a--4--4-7-7/7-2-2-7/7/7----------------
  e--2--2-5-5/5-----5/5/5----------------

  
  Esta parte va 4 veces
  
  e--------------------------------------
  b--------------------------------------
  g--4/4/4/4/4/4/4/4--7/7/7/7/7/7/7/7----      
  d--4/4/4/4/4/4/4/4--7/7/7/7/7/7/7/7----
  a--2/2/2/2/2/2/2/2--5/5/5/5/5/5/5/5----
  e--------------------------------------


  Se toca 4 veces   

  e------------------------------------
  b------------------------------------
  g--------5-5-5---4-4-4---------------
  d--4-4---5-5-5---4-4-4-7-7-7---4-----
  a--4-4/0-3-3-3/0-2-2-2-7-7-7---4-----
  e--2-2/0---------------5-5-5/0-2-----

  El fin se toca esta ultima parte pero
  mas lento cada vez.

===================================================
Colaboracion de  Antonio Murillo



Acordes para guitarra
x

Todo acerca de Chuvak Banda