Acordes para guitarra

Indice Chico Che

guitartabs

===================================================
* Chico Che                                       *
* NO TE FIJES QUE SOY TIMIDO                      *
* ---???---                                       *
* ---???--- ()                                    *
============================================TAB====

Hola de nuevo amigos
Esta es otra cancion de Chico Che espero que les guste

En realidad el intro se toca en teclado pero suena muy
Bien en guitarra electrica con distorcion acompaņado de
Otra guitarra que lleve el ritmo 
(El ritmo es una cumbia dando un rasgueo hacia arriba)

Los acordes son que se van a usar son:


C          G7          A7           Dm
e-|-0-     e-|-1-      e-|-0-       e-|-1-
B-|-1-     B-|-0-      B-|-2-       B-|-3-
G-|-0-	   G-|-0-      G-|-0-       G-|-2-
D-|-2-	   D-|-2-      D-|-2-       D-|-0-
A-|-3-	   A-|-3-      A-|-0-       A-|-0-
E-|-0-	   E-|-0-      E-|-0-       E-|-0-



Intro: Se repide dos veces acompaņado por estos acordes
(G7-C-G7-C)

-------------------7--7--7-------------------8--8--8
--8--10--8--10--8-----------8--10--8--10--8---------
----------------------------------------------------
----------------------------------------------------
----------------------------------------------------
----------------------------------------------------


-------------------10--10--10--12--13--10------10----
--8--10--8--10--8--------------------------12------13
-----------------------------------------------------
-----------------------------------------------------
-----------------------------------------------------
-----------------------------------------------------




Al final de cada parrafo se hace lo siguiente:
En realidad no lo lleva pero suena muy bien les va a gustar

---------------------
--8--10--8--10--8--12
---------------------
---------------------
---------------------
---------------------


Aqui van los acordes:


                    C
Si me tienes que querer
                      G7
No te fijes que soy timido

Ni te admires por favor
                      C
Que gano el salario minimo


      A7
Si pretendo yo tu amor
                      Dm
No me mires como un cinico
       G7
Solo quiero por favor
                     C
Que comprendan mi pasion



Coro: (Se Repite el intro 2 veces acompaņado de otra guitarra)

                G7
Si soy algo simpatico
                    C
Y hasta un poco ridiculo
                    G7
Me vale un triste rabano
                     C
Por que te quiero a ti


                  G7
Un dia sere muy solido
                   C
Aunque este tan livido
                   G7
Perdona que sea sincero
                   C
Pues me muero por ti



Cuando yo te conoci
                          G7
Quise hacer mi amor tan valido

Cuando cerca te mire
                     C
Te robe un besito calido


        A7
Pero Pensabas que yo
                    Dm
Era un excelente quimico
          G7
Pero en comico quede
                       C
Y ahora sufro por tu amor



Coro:

                G7
Si soy algo simpatico
                    C
Y hasta un poco ridiculo
                    G7
Me vale un triste rabano
                     C
Por que te quiero a ti



Bueno espero que la gozen
Gracias por su atencion
Ya sabe si quieren insultarme o protestar escriban 
Mi nombre dice arriba y a bailar

===================================================
Colaboracion de  Ricardo Noe Rodriguez Hernandez



Acordes para guitarra
x

Todo acerca de Chico Che