Acordes para guitarra

Indice Charly Garcia

guitartabs

===================================================
| Charly Garcia                                   |
| ME SIENTO MUCHO MEJOR                           |
| Charly Garcia                                   |
| ---???--- ()                                    |
============================================BAS====

ESTA TABALTURA DE BAJO 
ES MUY FÁCIL DE ENTENDER
Y LES ASEGURO QUE ESTÁ IGUAL A LA CANCIÓN.

INTRO (ESPEREN A QUE EMPIECE EL BAJO)

G---------------------
D---------------------  
A---------------------
E-5--5-0-2-4-5--5-0--0  x2

ESTROFA

G---------------------
D---------------------
A---------------------
E-5--5-0-2-4-5--5-0--0  x2

G----------------------------
D----------------------------
A-----------------4-4-2-2-4-4
E-4-44--4-44--2-2------------

PRE ESTRIBILLO Y ESTRIBLLO (C)

G-----------------------------
D-----------------------------
A----------------2-4-5-55-2-22
E-5--5-0-2-4-5--5-------------  (PRE ESTRIBILLO)

...ME SIENTO MUCHO MÁS FUERTE... (ESTRIBILLO)

G------------------------
D------------------------
A-----7-77-5-55----------
E-5-55-----------33333333

INTRODUCCIÓN

ESTROFA

(C)

INTRODUCCIÓN

INTERMEDIO (ESPERAR A QUE A QUE COMIENCE EL BAJO)

G---------------------
D---------------------
A-----------2-22-02-02
E-2-22-02-02----------

(C)

INTRODUCCIÓN

ESTROFA

(C) (REPITE DOS VECES EL ESTRIBILLO)

FINAL

G---------------------
D---------------------
A---------------------
E-5--5-0-2-5--33333333  x2

G---------------------- 
D----------------------
A----------------------
E-5-55-3-33-2-22-0----5



PARECE LARGA Y CONFUSA PERO CUANDO LA EMPIECEN A PRACTICAR, VAN
A VER QUE ES CORTA Y SENCILLA.

===================================================
Colaboracion de Hernán Matías Galante



Acordes para guitarra
x

Todo acerca de Charly Garcia