Acordes para guitarra

Indice Caviar

guitartabs





Kind of weird, but a cool song.  The only real guitar is in the
chorus, but i wrote the tab for one of the synth riffs anyway.

Chorus:
e|-----------------------------------------|
b|-----------------------------------------|
G|-7--------------------7------------------|
D|-7--7-7--5-5--3-3-/5--7--7-7--5-5--3-3---|
A|-5--7-7--5-5--3-3-/5--5--7-7--5-5--3-3---|
E|----5-5--3-3--1-1-/3-----5-5--3-3--1-1---|

It's distorted, and listen to the song for repeats.


Synth deal in the beginning (he uses a pitch bender):
e|---------------------------|
b|-----10---8-10-8--7--------|
G|--7-----------------7------|
D|----------------------7----|
A|---------------------------|
E|---------------------------|

That's it I guess.  If there's anything else let me know at
Acordes para guitarra
x

Todo acerca de Caviar