Acordes para guitarra

Indice Catch 22

guitartabs





-----------------------------------------------------------------------------
	           Wine Stained lips solo - Catch 22
-----------------------------------------------------------------------------

This probablly isn't right, but it is close enough for my liking. you think its
wrong then fix it. This probably aint the most easy way to play it either. this
dont show timing. 

~ means let is ring while you play the other notes. ok?

e-10-10-10----------------|--------------------------|
B----------10h12-10-8---8-|---13-12-10-12-10-8-----8-|
G---------------------9---|-9------------------9-7-7-|
D-------------------------|--------------------------|
A-------------------------|--------------------------|
E-------------------------|--------------------------|

e--------8-7-7--10-7-7--8-7-7--10-7-7-|---------------8-7----------|
B-----8------8-------8------8-------8-|-----8------8------8------8-|
G-7-9-7-------------------------------|-7-9-7--7-9-7------7--7-9-7-|
D-------------------------------------|----------------------------|
A-------------------------------------|----------------------------|
E-------------------------------------|----------------------------|

e-----7---------------7---------------7--------------------|
B-8-8---8-8-10-8--8-8---8-8-10-8--8-8---8-8-10-8--8-8-10-8-|
G-7~~~~~~~~~~~----7~~~~~~~~~~~~~--7~~~~~~~~~~~~~--7-7--7-7-|
D----------------------------------------------------------|
A----------------------------------------------------------|
E----------------------------------------------------------|

e---------------------|---------------------|
B-8p7-8p7-------------|---------------------|
G---------9-7---7-----|---------------------|
D-------------9---9-5-|-5h7-5h7/9-7-5p4-7-5-|
A---------------------|---------------------|
Acordes para guitarra
x

Todo acerca de Catch 22