Acordes para guitarra

Indice Carnaval De Cadiz

guitartabs

===================================================
| Carnaval de Cadiz                               |
| COMPARSA CALABAZAS                              |
| Martinez ares-popurrit calabazas                |
| Calabazas intro (1991)                          |
============================================TAB====

Intro del Popurrit de la comparsa Calabazas
Comparsa Calabazas . Martinez Ares
Tab realizado por Elpacow



Nota...
------------
-Tocar con guitarra espaņola 4 traste creo o 5 porbar ustede el tono. Enga Saludos.
Pista 1 (Capo 4)



                                                                                               
E||---------------------------------------------|---------------------------------------------|
B||------0-----0-----0-----0--------------------|------0-----0-----0-----0--------------------|
G||----4-----4-----4-----4----------------------|----4-----4-----4-----4----------------------|
D||--2-----3-----2-----0-------0---0h2h0--------|--2-----3-----2-----0-------0---0h2h0--------|
A||--------------------------4---4-------3~2~---|--------------------------4---4-------3-2~---|
E||---------------------------------------------|---------------------------------------------|


                                                                                                      
--------------------------------------------------|--------------------------------------------------|
------0-----0-----0-----0-----0-----0-----0-----0-|------0-----0-----0-----0-----0-----0-----0-----0-|
----4-----4-----4-----4-----7-----7-----7-----7---|----7-----5-----5-----5-----4-----4-----4-----4---|
--2-----3-----2-----3-----5-----3-----5-----7-----|--5-----3-----5-----3-----2-----3-----2-----0-----|
--------------------------------------------------|--------------------------------------------------|
--------------------------------------------------|--------------------------------------------------|


                                                               F                            
-------------------------------------------|-----------------------------------------------|
-------------------------------------------|-------------------1----1-1h0------------------|
------0-----0------------------------------|-------------------2----------2-2h0------------|
----0-----0--------------------------------|-------------------3----------------3~2--0--2--|
--3-----2-----0~------0h2h0-0h2h0-0h2h0----|--0h2h0------------3---------------------------|
----------------------------------------3~-|--------3~-2~-1~---1---------------------------|


                     E          
---------------------0--------||
---------------------0--------||
------------------1--1--------||
--3h2h0--------2-----2--------||
------------2--------2--------||
---------0-----------0--------||

===================================================
Colaboracion de elpacow



Acordes para guitarra
x

Todo acerca de Carnaval De Cadiz