Acordes para guitarra

Indice Carnaval De Cadiz

guitartabs

=====================================================================
| ARTISTA: Carnaval de Cadiz                                        |
| CANCION: Tanguillo                                                |
| AUTOR:   Carnaval de Cadiz (?)                                    |
| ALBUM:   -?-                                                      |
+------------------------------------------------------TAB-cdca0252-+
| TRANS:   manuel maria benitez abrio                               |
=====================================================================

Este es un tanguillo de cadiz continuación del
 que ya esta en la pagina.



1--5-5-5-4-4-4-2-2-2-0-0-0
2-------------------------
3-------------------------
4-------------------------
5-------------------------
6-------------------------


1--5-5-5-4-4-4-2-0---4-4-4
2------------------3------
3-------------------------
4-------------------------
5-------------------------
6-------------------------



1--2-2-2-0-0-0-------4-4-4
2--------------3-3-3------
3-------------------------
4-------------------------
5-------------------------
6-------------------------


1--2-2-2-0-----5-5-5-4-4-4
2----------3-2------------
3-------------------------
4-------------------------
5-------------------------
6-------------------------


1--2-2-2-0-0-0-----0-----0
2--------------2-3---2-3--
3-------------------------
4-------------------------
5-------------------------
6-------------------------


1--2-4-2---0-2---0-2-4-2-0
2--------3-----3----------
3-------------------------
4-------------------------
5-------------------------
6-------------------------


1------0-2-0-4-2-0--------
2--2-3-------------3-2-0--
3------------------------2
4-------------------------
5-------------------------
6-------------------------

ESTE TANGUILLO VA DEDICADO A “ELLA” PA QUE SEPA QUE SIEMPRE SERA
 LA MEJOR Y QUE DIGA LO QUE DIGA SEGUIRA SIENDO ASI CONMIGO


1111600695

Acordes para guitarra
x

Todo acerca de Carnaval De Cadiz