Acordes para guitarra

Indice Carajo

guitartabs

=====================================================================
| ARTISTA: Carajo                                                   |
| CANCION: EL LLANTO ESPIRITUAL                                     |
| AUTOR:   Hernán "terry" Langer                                    |
| ALBUM:   Atrapasueños (2004)                                      |
+------------------------------------------------------TAB-carj0141-+
| TRANS:   Federico Bitschin                                        |
=====================================================================

Estructura:

Intro
estribillo
Verso 1
Verso 2
Intermedio
Estribillo
Break
Verso 3
Verso 4
Intermedio
Estribillo
Fill
Solo
Se mete Estribillo
Fill

Intro
|-----------------------------------------------------------|
|--6-6-6-6-6-6-6-6-8-8-8-9-9-9----3-3-3-3-3-3--5-5-5-5-5-5--|
|--6-6-6-6-6-6-6-6-6-6-6-6-6-6----3-3-3-3-3-3--5-5-5-5-5-5--| x2
|---------------------------------3-3-3-3-3-3--5-5-5-5-5-5--|
|-----------------------------------------------------------|
|-----------------------------------------------------------|

|-----------------------------------|
|--6-6-6-6-6-6-6-6-8-8-8-8-9-9-9-9--|
|--6-6-6-6-6-6-6-6-6-6-6-6-6-6-6-6--| x1
|-----------------------------------|
|-----------------------------------|
|-----------------------------------|

Estribillo
|-------------------------------------------------------------------
|--3-3-3-3-3-3-3-3--6-6-6-6-6-6-6-6-------------------8-8-8-9-9-9-9-
|--3-3-3-3-3-3-3-3--6-6-6-6-6-6-6-6--4-4-4-4-4-4-4-4--6-6-6-5-5-5-5-
|--3-3-3-3-3-3-3-3--6-6-6-6-6-6-6-6--4-4-4-4-4-4-4-4--6-6-6-5-5-5-5-
|--3-3-3-3-3-3-3-3--6-6-6-6-6-6-6-6--4-4-4-4-4-4-4-4--6-6-6-5-5-5-5-
|------------------------------------4-4-4-4-4-4-4-4----------------

------------------------------------------------------------------
-3-3-3-3-3-3-3-3--6-6-6-6-6-6-6-6--6-6-6-6-6-6-6-8-8-8-8-9-9-9-9--
-3-3-3-3-3-3-3-3--6-6-6-6-6-6-6-6--8-8-8-6-6-6-6-6-6-6-6-5-5-5-5--
-3-3-3-3-3-3-3-3--6-6-6-6-6-6-6-6--6-6-6-6-6-6-6-6-6-6-6-5-5-5-5--
-3-3-3-3-3-3-3-3--6-6-6-6-6-6-6-6--6-6-6-6-6-6-6-6-6-6-6-5-5-5-5--
------------------------------------------------------------------

--------------------------------------------------------------|
-3-3-3-3-3-3-3-3-6-6-6-6-6-6-6-6-------------8-8-8-8-9-9-9-9--|
-3-3-3-3-3-3-3-3-6-6-6-6-6-6-6-6-4-4-4-4-4-4-6-6-6-6-5-5-5-5--|
-3-3-3-3-3-3-3-3-6-6-6-6-6-6-6-6-4-4-4-4-4-4-6-6-6-6-5-5-5-5--|
-3-3-3-3-3-3-3-3-6-6-6-6-6-6-6-6-4-4-4-4-4-4-6-6-6-6-5-5-5-5--|
---------------------------------4-4-4-4-4-4------------------|

Break
|-----------------------------|
|-----------------------------|
|--7-6-7--9-8---7-6-7--9-8-8--|
|--7-6-7--7-7---7-6-7--7-7-7--|
|--7-6-7--------7-6-7---------|
|-----------------------------|

Verso 1
|-----------------------------------------------------------------4-
|-------4------3-3-------4----------------------4------3-3------4---
|----0------0---------0-----3--1--0h1p0h1-----0------0--------0-----
|--0------0---------0----------------------0------0--------0--------
|-------------------------------------------------------------------
|-------------------------------------------------------------------

-------------|
-3-4--1-1-1--|
-0-0--0-0-0--|
-------------|
-------------|
-------------|

Verso 2
|----------------------------------------------------
|----------------------------------------------------
|--6-6-8-9-8-8--6-6-8-9-8--4-4-6-7-6-6--3-3-5-6-5-5--
|--6-6-6-6-6-6--6-6-6-6-6--4-4-4-4-4-4--3-3-3-3-3-3--
|--6-6-6-6-6-6--6-6-6-6-6--4-4-4-4-4-4--3-3-3-3-3-3--
|----------------------------------------------------
   . .          . .        . .          . .
---------------------------------------|
---------------------------------------|
-6-6-8-9-8-8--6-6-8-9-8---4-6-------3--|
-6-6-6-6-6-6--6-6-6-6-6---4-4-------3--|
-6-6-6-6-6-6--6-6-6-6-6---4-4-------3--|
---------------------------------------|
 . .          . .

Intermedio
|-----------------------------------|
|--6-6-6-6-6-6-6-6-8-8-8-8-9-9-9-9--|
|--6-6-6-6-6-6-6-6-6-6-6-6-6-6-6-6--|
|-----------------------------------|
|-----------------------------------|
|-----------------------------------|

Verso 3
|-------------------------------------------------------------------
|-------------------------------------------------------------------
|--3-3-3-3-3-3-3-3--------------------------------------------------
|--3-3-3-3-3-3-3-3--3-3-3-3-3-3-3-3--5-5-5-5-5-5-5-5--3-3-3--1-1-1--
|--3-3-3-3-3-3-3-3--3-3-3-3-3-3-3-3--5-5-5-5-5-5-5-5--3-3-3--1-1-1--
|-------------------3-3-3-3-3-3-3-3--5-5-5-5-5-5-5-5--3-3-3--1-1-1--
   . . . . . . . .  . . . . . . . .  . . . . . . . .
------------------------------------------------------------------------|
------------------------------------------------------------------------|
-3-3-3-3-3-3-3-3-------------------5-5-5-5-5-5-5-5----------------------|
-3-3-3-3-3-3-3-3--3-3-3-3-3-3-3-3--5-5-5-5-5-5-5-5--3-3-3-3-1-1-1-0-0-0-|
-3-3-3-3-3-3-3-3--3-3-3-3-3-3-3-3--5-5-5-5-5-5-5-5--3-3-3-3-1-1-1-0-0-0-|
------------------3-3-3-3-3-3-3-3-------------------3-3-3-3-1-1-1-0-0-0-|
 . . . . . . . .  . . . . . . . .  . . . . . . . .  . . . . . . . . . .

Verso 4
|--------------------------------------------------------------------
|--------------------------------------------------------------------
|--3-3-3-3-3-3-3-3---------------------------------------------------
|--3-3-3-3-3-3-3-3--3-3-3-3-3-3-3-3--5-5-5-5-5-5-5-5---3-3-3--1-1-1--
|--3-3-3-3-3-3-3-3--3-3-3-3-3-3-3-3--5-5-5-5-5-5-5-5---3-3-3--1-1-1--
|-------------------3-3-3-3-3-3-3-3--5-5-5-5-5-5-5-5---3-3-3--1-1-1--

--------------------------------------------------|
--------------------------------------------------|
--3-3-3-3-3-3-3-3----------------------5----------|
--3-3-3-3-3-3-3-3--3-3-3-3-3-3-3-3-----5----1-----|
--3-3-3-3-3-3-3-3--3-3-3-3-3-3-3-3-----5----1-----|
-------------------3-3-3-3-3-3-3-3----------1-----|

Fill
|--------------------------------------------------------|
|--------------------------------------------------------|
|--------------------------------------------------------|
|--7-6-7-9-6--6-7-6-7-9-6-6--6-7-6-7-9-6--6-7-6-7-9-6-6--|
|--7-6-7-9-6--6-7-6-7-9-6-6--6-7-6-7-9-6--6-7-6-7-9-6-6--|
|--7-6-7-9-6--6-7-6-7-9-6-6--6-7-6-7-9-6--6-7-6-7-9-6-6--|

Solo: Antes de empezar hace un MI y después un FA con efecto
|----------------------------------------------------------------------
|-----------------------9-9-9--6-6-6--6-9p6--8h9-8p6-------------------
|-6-6-6--8-8~--6h8~-8p6------------------------------6-6-6--8-8~--6h8~-
|----------------------------------------------------------------------
|----------------------------------------------------------------------
|----------------------------------------------------------------------

-----------------------------------------------------------------------|
---------------------------------9-9-9-6--9-9-9p6~---------------9~-9~-|
8p6--6/5-5-5-5--3h5p3--3-3-3-3/5-------------------9/12-12-12-12--12---|
-----------------------------------------------------------------------|
-----------------------------------------------------------------------|
-----------------------------------------------------------------------|

LETRA
¨¨¨¨¨
Es fácil enloquecer...
Supiste alejar todo lo malo de tu corazón
y calmar tu llanto espiritual.
Supiste evitar quedar trabado
en el medio del dolor.
Cayó del Cielo un ángel justiciero,
sembró en tu alma la semilla de la paz.
Surgió de nuevo el hombnre verdadero,
compartió su don sagrado de vivir por los demás.
Supiste alejar todo lo malo de tu corazón
y calmar tu llanto espiritual.
Supiste evitar quedar trabado
en el medio del dolor.
Llegó de lejos, desheredando infiernos,
combatió todo el dolor y la miseria que encontro
Y así llegó a comprender el sufrimiento ajeno,
por arrastrar la cruz de la propia debilidad.
Supiste alejar todo lo malo de tu corazón
y calmar tu llanto espiritual.
Supiste evitar quedar trabado
en el medio del dolor.
Es fácil enloquecer...
Supiste alejar todo lo malo de tu corazón
y calmar tu llanto espiritual.
Supiste evitar quedar trabado
en el medio del dolor.

BuEnO, aCa EsTa El LlAnTo EsPiRiTuAl, Un TeMaZo BaRbArO.
EsPeRo QuE lO dIsFrUtEn.
FlOr Te AmO mUcHo. No sOpOrTo Ni Un SeGuNdO mAs SiN vOs.
Te QuIeRo Un MoNtOn. Yo ~ Tu FeDe.


1137629303

Acordes para guitarra
x

Todo acerca de Carajo